To celebrate the anniversary, I am giving you (finally...) : iPhone LickByNeck !!!!!!
0 com

Amigos Para Siempre - Friends For Life (BASIC)

Andrew Lloyd Webber's tune fingerstyle chord melody guitar BASIC arrangement played in the key of G.
Amigos Para Siempre-Friends For Life-Andrew Lloyd Webber-BASIC Arrangement played in the key of G
http://classicalguitartablature.blogspot.com/
E|--------------------------------|--------------------------------|
B|-------- 0----------------------|------ 0------------------------|
G|---- 0------------------ 0------|------ 0---------------- 0------|
D|-- 0---------------- 0----------|---- 0-------------- 0----------|
A|--------------------------------|--------------------------------|
E| 3---------- 3-- 3---------- 3--| 3---------- 3-- 3---------- 3--|
http://classicalguitartablature.blogspot.com/
E|--------------------------------|--------------------------------|
B| 0------ 0-------------- 0-- 1--| 3------ 0----------------------|
G|------ 0------------ 2 0--------|------ 0-------- 2------ 0------|
D|---- 0--------------------------|-- 0---------------- 0----------|
A|--------------------------------|--------------------------------|
E| 3---------- 3-- 3---------- 3--| 3---------- 3-- 3---------- 3--|
http://classicalguitartablature.blogspot.com/
http://classicalguitartablature.blogspot.com/
E|--------------------------------|--------------------------------|
B| 0------ 0------------ 0---- 1--| 3------ 0----------------------|
G|------ 0------------ 2----------|---- 0---------- 2------ 0------|
D|---- 4--------------------------|-- 4---------------- 4----------|
A|--------------------------------|--------------------------------|
E| 3---------- 3-- 3---------- 3--| 3-------- 3---- 3---------- 3--|
http://classicalguitartablature.blogspot.com/
E|--------------------------------|--------------------------------|
B|------------ 0------------------|------------ 0------------------|
G| 2-- 2-- 2---------- 2----------| 2-- 2 2---------- 2------------|
D| 2-- 2-- 2------ 2------ 2------| 1------------ 1------ 1---- 1--|
A| 0---------- 0-- 0---------- 0--| 3-------- 3-- 3------------ 3--|
E|--------------------------------|--------------------------------|
http://classicalguitartablature.blogspot.com/
E|--------------------------------|--------------------------------|
B|---- 0--------------------------|--------------------------------|
G|---- 0------------------ 0------|-------- 0-------------- 0------|
D| 0------ 0---------- 0----------|---- 0-------------- 0----------|
A|--------------------------------|--------------------------------|
E| 3---------- 3-- 3-------- 3----| 3---------- 3-- 3---------- 3--|
http://classicalguitartablature.blogspot.com/
E|--------------------------------|--------------------------------|
B| 0------ 0-------------- 0-- 1--| 3------ 0----------------------|
G|------ 0------------ 2 0--------|------ 0-------- 2------ 0------|
D|---- 0--------------------------|-- 0---------------- 0----------|
A|--------------------------------|--------------------------------|
E| 3---------- 3-- 3---------- 3--| 3---------- 3-- 3---------- 3--|
http://classicalguitartablature.blogspot.com/
E|--------------------------------|--------------------------------|
B| 0------ 0------------ 0---- 1--| 3------ 0----------------------|
G|------ 0------------ 2----------|---- 0---------- 2------ 0------|
D|---- 4--------------------------|-- 4---------------- 4----------|
A|--------------------------------|--------------------------------|
E| 3---------- 3-- 3---------- 3--| 3-------- 3---- 3---------- 3--|
http://classicalguitartablature.blogspot.com/
E|--------------------------------|--------------------------------|
B|------------ 0------------------|------------ 0------------------|
G| 2-- 2-- 2---------- 2----------| 2-- 2 2---------- 2------------|
D| 2-- 2-- 2------ 2------ 2------| 1------------ 1------ 1---- 1--|
A| 0---------- 0-- 0---------- 0--| 3-------- 3-- 3------------ 3--|
E|--------------------------------|--------------------------------|
http://classicalguitartablature.blogspot.com/
E|--------------------------------|--------------------------------|
B|---- 0--------------------------|--------------------------------|
G|-------- 0---- 0---------- 0----|------------ 7------------------|
D| 0---------- 0------ 0-------- 0|-------- 5---------- 5----------|
A|--------------------------------|--------------------------------|
E| 3-------------- 3--------------|-- 7---------------------- 7----|
http://classicalguitartablature.blogspot.com/
E|------------------------------ 3|---- 2 2-- 0-- 0----------------|
B|-- 8------ 8------ 8---------- 1|---- 1 1-- 1-- 1---- 3-- 3-- 1--|
G|-- 7------ 7------ 7---------- 0|---- 0 0-- 0-- 0---- 0-- 0------|
D|-- 5------ 5-------- 5----------|------------------------ 2------|
A|--------------------------------| 3-------- 3---- 3---------- 3--|
E|--------------------------------|--------------------------------|
http://classicalguitartablature.blogspot.com/
E| 0------------------------ 3----| 3------------------------------|
B| 3---- 3------------------------| 3 3---- 3 1-- 1-- 0-- 0------ 0|
G|------ 2---------------- 2------| 0 0---- 0 0-- 0---------- 2----|
D|---- 4-------------- 4----------|-------------- 0----------------|
A| 5-------- 5---- 5--------------|--------------------------------|
E|--------------------------------| 3---------- 3-- 3-------- 3----|
http://classicalguitartablature.blogspot.com/
E|-------------------------- 0-- 0|--------------------------------|
B|------ 0---------------------- 1|---- 3 3-- 1---- 1-- 0 0--------|
G|------ 0-------------- 0------ 0|------------ 0-- 0---------- 2--|
D|-- 2---------------- 2----------|------------ 2-- 2--------------|
A|------------------------------ 0|------------ 0-- 0---------- 0--|
E| 0---------- 0-- 0---------- 0--|--------------------------------|
http://classicalguitartablature.blogspot.com/
E|--------------------------------|--------------------------------|
B|---------------------------- 0--|------------ 0------------------|
G| 5-- 5------ 2-- 2-- 2 2--------| 2------ 0---------------- 0----|
D|-------- 4----------------------|---- 0---------------- 0--------|
A| 5---------- 5-- 5-------- 5----|--------------------------------|
E|--------------------------------| 3---------- 3-- 3--------------|
http://classicalguitartablature.blogspot.com/
E|--------------------------------| 3------ 3-------- 3---------- 3|
B|--------------------------------| 3------ 3-------- 3---------- 1|
G|-------------- 0----------------|------------------------------ 0|
D|---------- 0-------- 0----------|--------------------------------|
A|---- 2-------------------- 2----|--------------------------------|
E| 3------------------------------|--------------------------------|
http://classicalguitartablature.blogspot.com/
E|---- 2 2-- 0-- 0----------------| 0------------------------ 3----|
B|---- 1 1-- 1-- 1---- 3-- 3-- 1--| 3---- 3------------------------|
G|---- 0 0-- 0-- 0---- 0-- 0------|------ 2---------------- 2------|
D|------------------------ 2------|---- 4-------------- 4----------|
A| 3-------- 3---- 3---------- 3--| 5-------- 5---- 5--------------|
E|--------------------------------|--------------------------------|
http://classicalguitartablature.blogspot.com/
E| 3------------------------------|-------------------------- 0-- 0|
B| 3 3---- 3 1-- 1-- 0-- 0------ 0|------ 0---------------------- 1|
G| 0 0---- 0 0-- 0---------- 2----|------ 0-------------- 0------ 0|
D|-------------- 0----------------|-- 2---------------- 2----------|
A|--------------------------------|------------------------------ 0|
E| 3---------- 3-- 3-------- 3----| 0---------- 0-- 0---------- 0--|
http://classicalguitartablature.blogspot.com/
E|--------------------------------|--------------------------------|
B|---- 3 3-- 1---- 1-- 0 0--------|---------------------------- 0--|
G|------------ 0-- 0---------- 2--| 5-- 5------ 2-- 2-- 2 2--------|
D|------------ 2-- 2--------------|-------- 4----------------------|
A|------------ 0-- 0---------- 0--| 5---------- 5-- 5-------- 5----|
E|--------------------------------|--------------------------------|
http://classicalguitartablature.blogspot.com/
E|--------------------------------|--------------------------------|
B|--------------------------------|------ 1------------------------|
G| 2------ 2-- 0---- 0-------- 0--|-- 0-------------- 0---------- 5|
D|---- 1------ 0-------- 0--------|------------ 1---------- 1-- 5--|
A|--------------------------------|------ 3-------------------- 6--|
E| 3---------- 3---- 3------------|--------------------------------|
http://classicalguitartablature.blogspot.com/
E|--------------------------------|------------ 3------------ 3----|
B|-------- 4----------------------|------------ 3-------- 3--------|
G|--------------------------------|------------ 0---- 0------------|
D|-- 5------------ 5--------------|---------------- 0--------------|
A|--------------------------------|--------------------------------|
E|--------------------------------|---------- 3--------------------|
http://classicalguitartablature.blogspot.com/
0 com

Ferry Cross The Mersey (BASIC)

Gerry And The Pacemakers' tune fingerstyle chord melody guitar BASIC arrangement played in the key of A.
Ferry Cross The Mersey-Gerry And The Pacemakers-BASIC Arrangement played in the key of A
http://classicalguitartablature.blogspot.com/
E|------------------------ 0------|------------------------ 0------|
B|-------- 2-- 2-- 0--------------|------ 2---- 2-- 0------------ 2|
G|-------- 0-- 0-- 0--------------|------ 0---- 0-- 0--------------|
D|---- 2------ 2------ 2------ 2--|---- 2-------------- 2------ 2--|
A| 0------------------------------| 0------------------------------|
E|---------------- 0--------------|---------------- 0--------------|
http://classicalguitartablature.blogspot.com/
E|------------------------ 0------|------------------------ 0------|
B|-------- 2-- 2-- 0--------------|-------- 2-- 2-- 0--------------|
G|-------- 0-- 0-- 0--------------|------ 0---- 0-- 0--------------|
D|---- 2-------------- 2------ 2--|---- 2-------------- 2------ 2--|
A| 0------------------------------| 0------------------------------|
E|---------------- 0--------------|---------------- 0--------------|
http://classicalguitartablature.blogspot.com/
http://classicalguitartablature.blogspot.com/
E| 0------------------------------|---------- 0-- 3---- 0----------|
B| 2------ 2----------------------|------ 3------ 0---------- 3----|
G|------ 0------------------------|---- 0-------- 0----------------|
D|---- 2-------------- 2------ 2--|---- 2--------------------------|
A| 0---------- 0------------------| 0------------------------------|
E|---------------- 0------ 0------|-------------- 0------ 0--------|
http://classicalguitartablature.blogspot.com/
E| 0------------------------------|------------------------------ 0|
B| 2------ 2----------------------|------ 2---------------------- 2|
G|------ 0------------------------|------ 0------------------------|
D|---- 2-------------- 2---- 2----|---- 2------------ 2------ 2----|
A| 0---------- 0---------------- 0|---------- 0--------------------|
E|---------------- 0------ 0------|-------------- 0------ 0--------|
http://classicalguitartablature.blogspot.com/
E|--------------------------------|---------- 0-- 3---- 0----------|
B|------ 2------------------------|------ 3------ 0---------- 3----|
G|------ 0------------------------|---- 0-------- 0----------------|
D|---- 2-------------- 2------ 2--|---- 2--------------------------|
A| 0---------- 0------------------| 0------------------------------|
E|---------------- 0------ 0------|-------------- 0------ 0--------|
http://classicalguitartablature.blogspot.com/
E| 0------------------------------|---------------------- 0--------|
B| 2------ 2----------------------|------ 2------------------------|
G|------ 0------------------------|------ 0------------------------|
D|---- 2-------------- 2---- 2----|---- 2------------ 2------ 2----|
A| 0---------- 0---------------- 0|---------- 0--------------------|
E|---------------- 0------ 0------|-------------- 0------ 0--------|
http://classicalguitartablature.blogspot.com/
E| 5---------------------- 5-- 7--| 4-------------------------- 4--|
B| 5------ 5----------------------| 5------ 5----------------------|
G|------ 6------------------------|---- 6---------------- 6--------|
D|---- 7-------------- 7----------|---- 6-------------- 6----------|
A| 0---------- 0------------------| 4---------- 4------------------|
E|---------------- 0--------------|---------------- 4--------------|
http://classicalguitartablature.blogspot.com/
E| 2------------------------ 2-- 0|-------------------- 0----------|
B| 3---------------- 5-- 3--------| 0---- 0-------------- 2-- 0-- 2|
G|---- 4--------------------------|------ 1-- 1--------------------|
D|-------- 4----------------------|-- 2----------------------------|
A| 2---------- 2------------------|-------------- 2----------------|
E|-------------- 2----------------| 0------------------------------|
http://classicalguitartablature.blogspot.com/
E|--------------------------------|--------------------------------|
B|-------- 2---- 0----------------|------ 2------------------------|
G|------ 2------ 0----------------|------ 0------------------------|
D|---- 2---------- 2-- 2------ 2--|---- 2-------------- 2------ 2--|
A| 0---------- 0------------------| 0---------- 0------------------|
E|---------------- 0------ 0------|---------------- 0------ 0------|
http://classicalguitartablature.blogspot.com/
E| 0------------------------------|---------- 0-- 3---- 0----------|
B| 2------ 2----------------------|------ 3------ 0---------- 3----|
G|------ 0------------------------|---- 0-------- 0----------------|
D|---- 2-------------- 2------ 2--|---- 2--------------------------|
A| 0---------- 0------------------| 0------------------------------|
E|---------------- 0------ 0------|-------------- 0------ 0--------|
http://classicalguitartablature.blogspot.com/
E| 0------------------------------|------------------------------ 0|
B| 2------ 2----------------------|------ 2---------------------- 2|
G|------ 0------------------------|------ 0------------------------|
D|---- 2-------------- 2---- 2----|---- 2------------ 2------ 2----|
A| 0---------- 0---------------- 0|---------- 0--------------------|
E|---------------- 0------ 0------|-------------- 0------ 0--------|
http://classicalguitartablature.blogspot.com/
E|--------------------------------|---------- 0-- 3---- 0----------|
B|------ 2------------------------|------ 3------ 0---------- 3----|
G|------ 0------------------------|---- 0-------- 0----------------|
D|---- 2-------------- 2------ 2--|---- 2--------------------------|
A| 0---------- 0------------------| 0------------------------------|
E|---------------- 0------ 0------|-------------- 0------ 0--------|
http://classicalguitartablature.blogspot.com/
E| 0------------------------------|---------------------- 0--------|
B| 2------ 2----------------------|------ 2------------------------|
G|------ 0------------------------|------ 0------------------------|
D|---- 2-------------- 2---- 2----|---- 2------------ 2------ 2----|
A| 0---------- 0---------------- 0|---------- 0--------------------|
E|---------------- 0------ 0------|-------------- 0------ 0--------|
http://classicalguitartablature.blogspot.com/
E| 5---------------------- 5-- 7--| 4-------------------------- 4--|
B| 5------ 5----------------------| 5------ 5----------------------|
G|------ 6------------------------|---- 6---------------- 6--------|
D|---- 7-------------- 7----------|---- 6-------------- 6----------|
A| 0---------- 0------------------| 4---------- 4------------------|
E|---------------- 0--------------|---------------- 4--------------|
http://classicalguitartablature.blogspot.com/
E| 2------------------------ 2-- 0|-------------------- 0----------|
B| 3---------------- 5-- 3--------| 0---- 0-------------- 2-- 0----|
G|---- 4--------------------------|------ 1-- 1--------------------|
D|-------- 4----------------------|-- 2----------------------------|
A| 2---------- 2------------------|-------------- 2----------------|
E|-------------- 2----------------| 0------------------------------|
http://classicalguitartablature.blogspot.com/
E|--------------------------------|--------------------------------|
B| 2 0----------------------------|------ 2------------------------|
G| 2-- 2--------------------------|------ 2------------------------|
D| 2---------- 2------ 2------ 2--|---- 2-------------- 2------ 2--|
A| 0------------------------------| 0---------- 0------------------|
E|---------------- 0------ 0------|---------------- 0------ 0------|
http://classicalguitartablature.blogspot.com/
E|-------------------- 0----------|--------------------------------|
B| 0-- 0------ 2-- 3---------- 3--| 2------------------------------|
G| 2-- 2---------------------- 1--| 2-- 2--------------------------|
D| 0-- 0--------------------------|------------ 2------ 2------ 2--|
A| 2------------------------------| 0------------------------------|
E|---------------- 0--------------|---------------- 0------ 0------|
http://classicalguitartablature.blogspot.com/
E|-------------------- 0----------|--------------------------------|
B| 0-- 0------ 2-- 3-- 3------ 3--| 2------ 2----------------------|
G| 2-- 2------ 2-- 1-- 1------ 1--| 2---- 2---------------------- 2|
D| 0-- 0---------- 0--------------|---- 2-------------- 2---- 2-- 0|
A| 2------------------------------| 0---------- 0------------------|
E|---------------- 0------ 0------|---------------- 0------ 0------|
http://classicalguitartablature.blogspot.com/
E|-------------------- 0------ 2 4|--------------------------------|
B| 0-- 0---- 2-- 3-------------- 5|------ 5-------------------- 5--|
G|---- 2------ 2 1----------------|---- 6---------- 6------ 6------|
D|---- 0---- 0---- 0--------------|-- 6---------------- 6----------|
A| 2------------------------------| 4---------- 4-- 4--------------|
E|---------------- 0------ 0------|--------------------------------|
http://classicalguitartablature.blogspot.com/
E|-- 2 2------ 2-- 2--------------| 0------------------------------|
B| 4-- 4------ 4-- 4-- 5------ 5--| 0------------------------------|
G| 2-- 2------ 2------ 2------ 2--|--------------------------------|
D|-------------------- 4----------|--------------------------------|
A| 2------------------------------| 7-- 7-- 5-- 5-- 4-- 4-- 2-- 2--|
E|---------------- 2------ 2------|--------------------------------|
http://classicalguitartablature.blogspot.com/
E| 0------------------------------|---------- 0-- 3---- 0----------|
B| 2------ 2----------------------|------ 3------ 0---------- 3----|
G|------ 0------------------------|---- 0-------- 0----------------|
D|---- 2-------------- 2------ 2--|---- 2--------------------------|
A| 0---------- 0------------------| 0------------------------------|
E|---------------- 0------ 0------|-------------- 0------ 0--------|
http://classicalguitartablature.blogspot.com/
E| 0------------------------------|------------------------------ 0|
B| 2------ 2----------------------|------ 2---------------------- 2|
G|------ 0------------------------|------ 0------------------------|
D|---- 2-------------- 2---- 2----|---- 2------------ 2------ 2----|
A| 0---------- 0---------------- 0|---------- 0--------------------|
E|---------------- 0------ 0------|-------------- 0------ 0--------|
http://classicalguitartablature.blogspot.com/
E|--------------------------------|---------- 0-- 3---- 0----------|
B|------ 2------------------------|------ 3------ 0---------- 3----|
G|------ 0------------------------|---- 0-------- 0----------------|
D|---- 2-------------- 2------ 2--|---- 2--------------------------|
A| 0---------- 0------------------| 0------------------------------|
E|---------------- 0------ 0------|-------------- 0------ 0--------|
http://classicalguitartablature.blogspot.com/
E| 0------------------------------|---------------------- 0--------|
B| 2------ 2----------------------|------ 2------------------------|
G|------ 0------------------------|------ 0------------------------|
D|---- 2-------------- 2---- 2----|---- 2------------ 2------ 2----|
A| 0---------- 0---------------- 0|---------- 0--------------------|
E|---------------- 0------ 0------|-------------- 0------ 0--------|
http://classicalguitartablature.blogspot.com/
E| 5---------------------- 5-- 7--| 4-------------------------- 4--|
B| 5------ 5----------------------| 5------ 5----------------------|
G|------ 6------------------------|---- 6---------------- 6--------|
D|---- 7-------------- 7----------|---- 6-------------- 6----------|
A| 0---------- 0------------------| 4---------- 4------------------|
E|---------------- 0--------------|---------------- 4--------------|
http://classicalguitartablature.blogspot.com/
E| 2------------------------ 2-- 0|-------------------- 0----------|
B| 3---------------- 5-- 3--------| 0---- 0-------------- 2-- 0-- 2|
G|---- 4--------------------------|------ 1-- 1--------------------|
D|-------- 4----------------------|-- 2----------------------------|
A| 2---------- 2------------------|-------------- 2----------------|
E|-------------- 2----------------| 0------------------------------|
http://classicalguitartablature.blogspot.com/
E|--------------------------------|------------------------ 2------|
B|-------- 2---- 0----------------|------------ 2-- 0--------------|
G|------ 2------ 0----------------|------ 0-------- 0--------------|
D|---- 2---------- 2-- 2------ 2--|---- 2-- 2---- 2---- 2------ 2--|
A| 0---------- 0------------------| 0------------------------------|
E|---------------- 0------ 0------|---------------- 0--------------|
http://classicalguitartablature.blogspot.com/
E| 0------------------------------|--------------------------------|
B| 2------ 2----------------------|------ 2------ 3------ 0--------|
G|------ 0------------------------|------ 0------------------------|
D|---- 2-------------- 2------ 2--|---- 2-------------- 2------ 2--|
A| 0---------- 0------------------| 0---------- 0------------------|
E|---------------- 0------ 0------|---------------- 0------ 0------|
http://classicalguitartablature.blogspot.com/
E|--------------------------------|--------------------------------|
B|-------- 0----------------------|------ 2------------------------|
G| 2---- 2------------------------|---- 0--------------------------|
D|---- 2-------------- 2------ 2--|---- 2-------------- 2-------- 2|
A| 0---------- 0---------------- 0|------------ 0------------------|
E|---------------- 0------ 0------|---------------- 0-------- 0----|
http://classicalguitartablature.blogspot.com/
E|--------------------------------|--------------------------------|
B|---------------- 2--------------|--------------------------------|
G|---------------- 0--------------|--------------------------------|
D|---------------- 2--------------|--------------------------------|
A|-------------- 0----------------|--------------------------------|
E|--------------------------------|--------------------------------|
http://classicalguitartablature.blogspot.com/
0 com

River Deep Mountain High (BASIC)

Tina Turner's tune fingerstyle chord melody guitar BASIC arrangement played in the key of G.
River Deep Mountain High-Tina Turner-BASIC Arrangement played in the key of G
http://classicalguitartablature.blogspot.com/
E|--------------------------------|--------------------------------|
B|--------------------------------|--------------------------------|
G|--------------------------------|--------------------------------|
D|--------------------------------|--------------------------------|
A|--------10--10-- 8--10------ 8--|--------------------------------|
E|----10--------------------------|10--10-- 8--10-------- 8--------|
http://classicalguitartablature.blogspot.com/
E|--------------------------------|--------------------------------|
B|--------------------------------|--------------------------------|
G|--------------------------------|---------------- 0------ 2------|
D|--------------------------------|--------------------------------|
A|--------------------------------|--------------------------------|
E| 3-- 3-- 1---- 3-------- 1------| 3------------------------------|
http://classicalguitartablature.blogspot.com/
http://classicalguitartablature.blogspot.com/
E|-------------------- 0------ 1--|------------ 1-- 1---------- 0--|
B| 0------ 1------ 3-- 0------ 1--|------------ 1-- 1---------- 1--|
G|---------------------------- 0--|------------ 0-- 0---------- 0--|
D|--------------------------------|--------------------------------|
A|--------------------------------| 3-------------- 3--------------|
E|---------------------------- 3--|------------ 3-------------- 3--|
http://classicalguitartablature.blogspot.com/
E|--------------------------------|---------------- 1-- 1-------- 1|
B| 3------------ 1----------------|---------------- 1-- 1-------- 1|
G| 0------------ 0----------------|---------------- 0-- 0-------- 0|
D| 2------------ 2----------------|--------------------------------|
A| 3-- 3---------- 3--------------| 3-------------- 3--------------|
E|------------ 3-------------- 3--|------------ 3-------------- 3--|
http://classicalguitartablature.blogspot.com/
E|------------ 0------------------|--------------------------------|
B|------------ 1---- 3---- 1---- 0|--------------------------------|
G|------------ 0---- 0---- 0------|--------------------------------|
D|------------------------ 2---- 0|--------------------------------|
A| 3-- 3---------- 3--------------|--------------------------------|
E|------------ 3-------------- 3--| 3---------- 3-- 3---------- 3--|
http://classicalguitartablature.blogspot.com/
E|--------------------------------|--------------------------------|
B|-------- 0---------- 0----------| 0------------------------------|
G|-------- 0---------- 0----------| 0-------------- 0------ 2------|
D|-------- 0---------- 0----------| 0------------------------------|
A|--------------------------------|--------------------------------|
E| 3---------- 3-- 3---------- 3--| 3---------- 3-- 3---------- 3--|
http://classicalguitartablature.blogspot.com/
E|-------------------- 0------ 1--|------------ 1-- 1---------- 0--|
B| 0------ 1------ 3-- 0------ 1--|------------ 1-- 1---------- 1--|
G|---------------------------- 0--|------------ 0-- 0---------- 0--|
D|--------------------------------|--------------------------------|
A|--------------------------------| 3-------------- 3--------------|
E| 3---------- 3-- 3---------- 3--|------------ 3-------------- 3--|
http://classicalguitartablature.blogspot.com/
E|--------------------------------|---------------- 1-- 1-------- 1|
B| 3------------ 1----------------|---------------- 1-- 1-------- 1|
G| 0------------ 0----------------|---------------- 0-- 0-------- 0|
D| 2------------ 2----------------|--------------------------------|
A| 3-- 3---------- 3--------------| 3-------------- 3--------------|
E|------------ 3-------------- 3--|------------ 3-------------- 3--|
http://classicalguitartablature.blogspot.com/
E|------------ 0------------------|--------------------------------|
B|------------ 1---- 3---- 1---- 0|--------------------------------|
G|------------ 0---- 0---- 0------|--------------------------------|
D|------------------------ 2---- 0|--------------------------------|
A| 3-- 3---------- 3--------------|--------------------------------|
E|------------ 3-------------- 3 3|------------ 3-- 3-------- 3----|
http://classicalguitartablature.blogspot.com/
E|---------------- 7-- 7------ 7--|------------ 5---------- 7------|
B|---------------------------- 7--|------------ 7---------- 7------|
G|---------------------------- 7--|------------ 7---------- 7------|
D|--------------------------------|--------------------------------|
A|--------------------------------| 5-------------- 5--------------|
E| 3-------- 3---- 3-------- 3----|------------ 5-------------- 5--|
http://classicalguitartablature.blogspot.com/
E|---------------- 3-- 3------ 3--|--------------------------------|
B|---------------- 3-- 3------ 3--|--------------------------------|
G|---------------- 0-- 0------ 0--|--------------------------------|
D|--------------------------------|--------------------------------|
A| 5-- 5---------- 5--------------|--------------------------------|
E|------------ 5-------------- 5--| 3-------- 3---- 3---------- 3--|
http://classicalguitartablature.blogspot.com/
E|---------------- 7-- 7------ 7--|------------ 5---------- 7------|
B|---------------------------- 7--|------------ 7---------- 7------|
G|---------------------------- 7--|------------ 7---------- 7------|
D|--------------------------------|--------------------------------|
A|--------------------------------| 5-------------- 5--------------|
E| 3-- 3------ 3-- 3---------- 3--|------------ 5-------------- 5--|
http://classicalguitartablature.blogspot.com/
E|---------------- 3-- 3------ 3--|--------------------------------|
B|---------------- 3-- 3------ 3--|--------------------------------|
G|---------------- 0-- 0------ 0--|--------------------------------|
D|--------------------------------|--------------------------------|
A| 5-- 5---------- 5--------------|--------------------------------|
E|------------ 5-------------- 5--| 3-------- 3---- 3---------- 3--|
http://classicalguitartablature.blogspot.com/
E|---------------- 7-- 7------ 7--|------------ 5---------- 7------|
B|---------------------------- 7--|------------ 7---------- 7------|
G|---------------------------- 7--|------------ 7---------- 7------|
D|--------------------------------|--------------------------------|
A|--------------------------------| 5-------------- 5--------------|
E| 3-- 3------ 3-- 3---------- 3--|------------ 5-------------- 5--|
http://classicalguitartablature.blogspot.com/
E|---------------- 3-- 3------ 3--|--------------------------------|
B|---------------- 3-- 3------ 3--|--------------------------------|
G|---------------- 0-- 0------ 0--|--------------------------------|
D|--------------------------------|--------------------------------|
A| 5-- 5---------- 5--------------|--------------------------------|
E|------------ 5-------------- 5--| 3-------- 3---- 3---------- 3--|
http://classicalguitartablature.blogspot.com/
E|--------------------------------|--------------------------------|
B|-------- 0---------- 0----------|---------------- 1--------------|
G|-------- 0---------- 0----------| 2-------------------------- 2--|
D|-------- 0---------- 0----------|---- 3------ 3------ 3----------|
A|--------------------------------|--------------------------------|
E| 3-- 3------ 3-- 3---------- 3--| 1------ 1------ 1------ 1------|
http://classicalguitartablature.blogspot.com/
E| 1-------------------------- 1--|------ 1-------- 0--------------|
B| 1------------------ 1----------|-------- 1------ 1------ 3------|
G|------------ 2-- 2--------------|--------------------------------|
D|---- 3--------------------------|-- 3-------- 3------ 3------ 3--|
A|--------------------------------|--------------------------------|
E| 1------ 1------ 1------ 1------| 1------ 1------ 1------ 1------|
http://classicalguitartablature.blogspot.com/
E|--------------------------------|--------------------------------|
B| 1------------------------------| 0-------------- 3--------------|
G|-------- 3------ 2------ 0------| 0-------------- 0--------------|
D|---- 3------ 3------ 3----------|---- 0------ 0-------- 0-- 0----|
A|--------------------------------|--------------------------------|
E| 1------ 1------ 1------ 1------| 3------ 3------ 3------ 3------|
http://classicalguitartablature.blogspot.com/
E| 3-------------------------- 3--|-------- 3------ 2------ 0------|
B|---------------- 0-- 3------ 3--|---------------- 3------ 3------|
G|---------------- 0-- 0----------|------------ 0------ 0----------|
D|---- 0------ 0------------------|---- 0---------------------- 0--|
A|--------------------------------|--------------------------------|
E| 3------ 3------ 3------ 3------| 3---- 3-------- 3------ 3------|
http://classicalguitartablature.blogspot.com/
E|--------------------------------|--------------------------------|
B| 3------ 1------ 0--------------|---------------- 1--------------|
G| 0------ 0------ 0------ 2------| 2-------------------------- 2--|
D|------------ 0------ 0----------|---- 3------ 3------ 3----------|
A|--------------------------------|--------------------------------|
E| 3------ 3------ 3------ 3------| 1------ 1------ 1------ 1------|
http://classicalguitartablature.blogspot.com/
E| 1-------------------------- 1--|------ 1-------- 0--------------|
B| 1------------------ 1----------|-------- 1------ 1------ 3------|
G|------------ 2-- 2--------------|--------------------------------|
D|---- 3--------------------------|-- 3-------- 3------ 3------ 3--|
A|--------------------------------|--------------------------------|
E| 1------ 1------ 1------ 1------| 1------ 1------ 1------ 1------|
http://classicalguitartablature.blogspot.com/
E|--------------------------------|--------------------------------|
B| 1-------------------------- 0--|---- 0---------- 3---- 3--------|
G|-------- 3------ 2------ 0------|---- 0---------- 0------ 0------|
D|---- 3------ 3------ 3----------|------------ 0------------------|
A|--------------------------------|--------------------------------|
E| 1------ 1------ 1------ 1------| 3------ 3------ 3------ 3------|
http://classicalguitartablature.blogspot.com/
E| 3-------- 3-------- 3----------|------------------------------ 3|
B| 3-------- 3-------- 3----------| 0------ 0------ 3------ 3---- 3|
G|---------- 0-------- 0----------|-------- 0------ 0------ 0------|
D|---------------------------- 0--| 0-------------- 0------ 0------|
A|--------------------------------|--------------------------------|
E| 3------ 3------ 3------ 3------| 3------ 3------ 3------ 3------|
http://classicalguitartablature.blogspot.com/
E|------------ 3------------------|--------------------------------|
B|------------ 3------------------|--------------------------------|
G| 0---------- 0------------------|--------------------------------|
D|--------------------------------|--------------------------------|
A|--------------------------------|------------------------ 8-- 9--|
E| 3---------- 3------------------|--------------------10----------|
http://classicalguitartablature.blogspot.com/
E|--------------------------------|--------------------------------|
B|--------------------------------|--------------------------------|
G|--------------------------------|--------------------------------|
D|--------------------------------|-------- 8----------------------|
A|10------10-------------- 8-- 9--|10-- 8------10---------- 8-- 9--|
E|--------------------10----------|--------------------10----------|
http://classicalguitartablature.blogspot.com/
E|--------------------------------|--------------------------------|
B|--------------------------------|--------------------------------|
G|--------------------------------|--------------------------------|
D|--------------------------------|-------- 8----------------------|
A|10------10-------------- 8-- 9--|10-- 8------10------ 5----------|
E|--------------------10----------|------------------------ 1-- 2--|
http://classicalguitartablature.blogspot.com/
E|-------- 1------ 1------ 1------| 1-------------------- 0------ 1|
B|-------- 0------ 0------ 0------| 0------ 3------ 3------------ 0|
G|-------- 0-------------- 0------| 0------------------------------|
D|--------------------------------|--------------------------------|
A|---------------------- 5--------|-------- 1---------- 5----------|
E| 3------ 3---------------- 1-- 2| 3-- 1------ 3---------- 1-- 2--|
http://classicalguitartablature.blogspot.com/
E|-------- 1------ 1------ 0------|-- 1 0--------------------------|
B|-------- 0------ 0--------------|------ 3------------------------|
G|--------------------------------|--------------------------------|
D|--------------------------------|--------------------------------|
A|---------------------- 5--------|-------- 1---------- 5----------|
E| 3------ 3---------------- 1-- 2| 3-- 1------ 3---------- 1-- 2--|
http://classicalguitartablature.blogspot.com/
E|-------- 1------ 1------ 1-- 1--|---- 1--------------------------|
B|-------- 0------ 0------ 0-- 0--|---- 0---------- 3------ 1------|
G|-------- 0------ 0------ 0-- 0--|---- 0--------------------------|
D|--------------------------------|--------------------------------|
A|---------------------- 5--------|-------- 1---------- 5----------|
E| 3------ 3---------------- 1-- 2| 3-- 1------ 3---------- 1-- 2--|
http://classicalguitartablature.blogspot.com/
E| 1------ 1------ 1------ 1-- 0--|--------------------------------|
B| 0------ 0------ 0------ 0------|---- 3--------------------------|
G| 0------ 0------ 0------ 0------|--------------------------------|
D|--------------------------------|--------------------------------|
A|---------------------- 5--------|-------- 1----------------------|
E| 3------ 3---------------- 1-- 2| 3-- 1------ 3------ 3-- 6-- 7--|
http://classicalguitartablature.blogspot.com/
E|-------- 6------ 6------ 6------| 5------------------------------|
B|--------------------------------|-------- 8-- 8------ 5----------|
G|--------------------------------|--------------------------------|
D|--------------------------------|--------------------------------|
A|--------------------------------|-------- 6----------------------|
E| 8------ 8---------- 3-- 6-- 7--| 8-- 6------ 8------ 3-- 6-- 7--|
http://classicalguitartablature.blogspot.com/
E| 6------ 6------ 6------ 6---- 5|------------ 5------------------|
B|--------------------------------|---- 8--------------------------|
G|--------------------------------|--------------------------------|
D|--------------------------------|--------------------------------|
A|--------------------------------|-------- 6---------- 5----------|
E| 8------ 8---------- 3-- 6-- 7--| 8-- 6------ 8---------- 1-- 2--|
http://classicalguitartablature.blogspot.com/
E|-------- 1------ 1------ 1------| 0-------------------- 0---- 1--|
B|-------- 0------ 0------ 0------|---- 3-------- 3---- 0------ 0--|
G|-------- 0------ 0------ 0------|-------------- 0----------------|
D|--------------------------------|--------------------------------|
A|-------------------- 5----------|-------- 1---------- 5----------|
E| 3------ 3---------------- 1 2--| 3-- 1------ 3---------- 1-- 2--|
http://classicalguitartablature.blogspot.com/
E|---------------- 1---- 1------ 0|------------ 0------------------|
B|---------------- 0---- 0--------|---- 3--------------------------|
G|---------------- 0---- 0--------|--------------------------------|
D|--------------------------------|--------------------------------|
A|-------------------- 5----------|-------- 1---------- 5----------|
E| 3------ 3---------------- 1 2--| 3-- 1------ 3---------- 1-- 2--|
http://classicalguitartablature.blogspot.com/
E|--------------------------------|--------------------------------|
B|--------------------------------|--------------------------------|
G| 0---------- 0------------------| 0------ 3-- 0------------------|
D| 0---------- 0---- 0---- 3-- 4--|---- 3------ 0------ 0 3---- 4--|
A|--------------------------------|--------------------------------|
E| 3---------- 3------------------| 3---------- 3------------------|
http://classicalguitartablature.blogspot.com/
E|--------------------------------|--------------------------------|
B|--------------------------------|--------------------------------|
G| 0---------- 0------------------| 0------ 3-- 0------------------|
D| 0---------- 0---- 0---- 3-- 4--|---- 3------ 0------ 0 3---- 4--|
A|--------------------------------|--------------------------------|
E| 3---------- 3------------------| 3---------- 3------------------|
http://classicalguitartablature.blogspot.com/
E|--------------------------------|--------------------------------|
B|--------------------------------|--------------------------------|
G| 0---------- 0------------------| 0------ 3-- 0------------------|
D| 0---------- 0---- 0---- 3-- 4--|---- 3------ 0------ 0 3---- 4--|
A|--------------------------------|--------------------------------|
E| 3---------- 3------------------| 3---------- 3------------------|
http://classicalguitartablature.blogspot.com/
E|--------------------------------|--------------------------------|
B|--------------------------------|--------------------------------|
G| 0---------- 0------------------| 0------ 3-- 0------------------|
D| 0---------- 0---- 0---- 3-- 4--|---- 3------ 0------ 0 3---- 4--|
A|--------------------------------|--------------------------------|
E| 3---------- 3------------------| 3---------- 3------------------|
http://classicalguitartablature.blogspot.com/
E|--------------------------------| 1-------------------------- 1--|
B|---------------- 1--------------| 1------------------ 1----------|
G| 2-------------------------- 2--|------------ 2-- 2--------------|
D|---- 3------ 3------ 3----------|---- 3--------------------------|
A|--------------------------------|--------------------------------|
E| 1------ 1------ 1------ 1------| 1------ 1------ 1------ 1------|
http://classicalguitartablature.blogspot.com/
E|------ 1-------- 0--------------|--------------------------------|
B|-------- 1------ 1------ 3------| 1------------------------------|
G|--------------------------------|-------- 3------ 2------ 0------|
D|-- 3-------- 3------ 3------ 3--|---- 3------ 3------ 3----------|
A|--------------------------------|--------------------------------|
E| 1------ 1------ 1------ 1------| 1------ 1------ 1------ 1------|
http://classicalguitartablature.blogspot.com/
E|--------------------------------| 3-------------------------- 3--|
B| 0-------------- 3--------------|---------------- 0-- 3------ 3--|
G| 0-------------- 0--------------|---------------- 0-- 0----------|
D|---- 0------ 0-------- 0-- 0----|---- 0------ 0------------------|
A|--------------------------------|--------------------------------|
E| 3------ 3------ 3------ 3------| 3------ 3------ 3------ 3------|
http://classicalguitartablature.blogspot.com/
E|-------- 3------ 2------ 0------|--------------------------------|
B|---------------- 3------ 3------| 3------ 1------ 0--------------|
G|------------ 0------ 0----------| 0------ 0------ 0------ 2------|
D|---- 0---------------------- 0--|------------ 0------ 0----------|
A|--------------------------------|--------------------------------|
E| 3---- 3-------- 3------ 3------| 3------ 3------ 3------ 3------|
http://classicalguitartablature.blogspot.com/
E|--------------------------------| 1-------------------------- 1--|
B|---------------- 1--------------| 1------------------ 1----------|
G| 2-------------------------- 2--|------------ 2-- 2--------------|
D|---- 3------ 3------ 3----------|---- 3--------------------------|
A|--------------------------------|--------------------------------|
E| 1------ 1------ 1------ 1------| 1------ 1------ 1------ 1------|
http://classicalguitartablature.blogspot.com/
E|------ 1-------- 0--------------|--------------------------------|
B|-------- 1------ 1------ 3------| 1-------------------------- 0--|
G|--------------------------------|-------- 3------ 2------ 0------|
D|-- 3-------- 3------ 3------ 3--|---- 3------ 3------ 3----------|
A|--------------------------------|--------------------------------|
E| 1------ 1------ 1------ 1------| 1------ 1------ 1------ 1------|
http://classicalguitartablature.blogspot.com/
E|--------------------------------| 3-------- 3-------- 3----------|
B|---- 0---------- 3---- 3--------| 3-------- 3-------- 3----------|
G|---- 0---------- 0------ 0------|---------- 0-------- 0----------|
D|------------ 0------------------|---------------------------- 0--|
A|--------------------------------|--------------------------------|
E| 3------ 3------ 3------ 3------| 3------ 3------ 3------ 3------|
http://classicalguitartablature.blogspot.com/
E|------------------------------ 3|------------ 3------------------|
B| 0------ 0------ 3------ 3---- 3|------------ 3------------------|
G|-------- 0------ 0------ 0------| 0---------- 0------------------|
D| 0-------------- 0------ 0------|--------------------------------|
A|--------------------------------|--------------------------------|
E| 3------ 3------ 3------ 3------| 3---------- 3------------------|
http://classicalguitartablature.blogspot.com/
0 com

Love Potion No 9 (BASIC)

The Searchers' tune fingerstyle chord melody guitar BASIC arrangement played in the key of Am.
Love Potion No 9-The Searchers-BASIC Arrangement played in the key of Am
http://classicalguitartablature.blogspot.com/
E|--------------------------------|--------------------------------|
B|--------------------------------|---- 5-- 4-- 5-- 4-- 5-- 4-- 5--|
G|--------------------------------|---- 5-- 5-- 5-- 5-- 5----------|
D|--------------------------------|---- 5-- 5-- 5-- 5-- 5----------|
A|--------------------------------|---------------------------- 4--|
E|---------------------------- 4--| 5------------------------------|
http://classicalguitartablature.blogspot.com/
E|--------------------------------|--------------------------------|
B|--------------------------------|---- 5-- 4-- 5-- 4-- 5-- 4-- 5--|
G| 7---------- 5------------------|---- 5-- 5-- 5-- 5-- 5----------|
D|-------- 7----------------------|---- 5-- 5-- 5-- 5-- 5----------|
A| 5------------------------------|---------------------------- 4--|
E|---------------------------- 4--| 5------------------------------|
http://classicalguitartablature.blogspot.com/
http://classicalguitartablature.blogspot.com/
E|--------------------------------|------------------------------ 0|
B|--------------------------------|-------------- 1------ 3-- 1-- 1|
G| 7---------- 5------------------| 0------ 2-- 0 0-------------- 0|
D| 7------ 7------------------ 7--|---- 2------------ 2------------|
A| 5------------------------------| 3---------------------------- 3|
E|--------------------------------|---------------- 3--------------|
http://classicalguitartablature.blogspot.com/
E|--------------------------------|--------------------------------|
B|---- 3 1------------------------|------------------------ 5------|
G|---- 0 0-------- 2---------- 2--|-------- 5------ 5--------------|
D|---- 2 2------ 2-------- 2------| 7-- 7------ 7------ 7------ 7--|
A|---------------- 0--------------| 5------------------------------|
E|--------------------------------|---------------- 5--------------|
http://classicalguitartablature.blogspot.com/
E|-------- 0----------------------|--------------------------------|
B|---------------- 3-- 1----------|--------------------------------|
G| 1---------------------- 2-- 0--| 2------ 2-------------- 2------|
D| 0------------------------------|---- 2-------------- 2----------|
A|--------------------------------| 0---------- 0------------------|
E| 0------------------------------|---------------- 0---------- 0--|
http://classicalguitartablature.blogspot.com/
E|--------------------------------|--------------------------------|
B|--------------------------------|---- 5-- 4-- 5-- 4-- 5-- 4-- 5--|
G|-------- 2-------------- 2------|---- 5-- 5-- 5-- 5-- 5 5---- 5--|
D|---- 2-------------- 2----------|---- 5-- 5-- 5-- 5-- 5 5---- 5--|
A| 0---------- 0------------------|--------------------------------|
E|---------------- 0---------- 0--| 5-------------- 0--------------|
http://classicalguitartablature.blogspot.com/
E|--------------------------------|--------------------------------|
B|--------------------------------|---- 5-- 4-- 5-- 4-- 5-- 4-- 5--|
G| 7---------- 5------------------|---- 5-- 5-- 5-- 5-- 5 5---- 5--|
D|-------- 7-------------- 7------|---- 5-- 5-- 5-- 5-- 5 5---- 5--|
A| 5------------------------------|--------------------------------|
E|---------------- 5---------- 5--| 5-------------- 0--------------|
http://classicalguitartablature.blogspot.com/
E|--------------------------------|------------------------------ 0|
B|--------------------------------|-------------- 1------ 3-- 1-- 1|
G| 7---------- 5------------------| 0------ 2-- 0 0-------------- 0|
D|-------- 7-------------- 7------|---- 2------------ 2------------|
A| 5------------------------------| 3---------------------------- 3|
E|---------------- 5---------- 5--|---------------- 3--------------|
http://classicalguitartablature.blogspot.com/
E|--------------------------------|--------------------------------|
B|---- 3 1------------------------|------------------------ 5------|
G|---- 0 0-------- 2---------- 2--|-------- 5------ 5--------------|
D|---- 2 2------ 2-------- 2------| 7-- 7------ 7------ 7------ 7--|
A|---------------- 0--------------| 5------------------------------|
E|--------------------------------|---------------- 5--------------|
http://classicalguitartablature.blogspot.com/
E|-------- 0----------------------|--------------------------------|
B|---------------- 3-- 1----------|--------------------------------|
G| 1---------------------- 2-- 0--| 2------ 2-------------- 2------|
D| 0------------------------------|---- 2-------------- 2----------|
A|--------------------------------| 0---------- 0------------------|
E| 0------------------------------|---------------- 0---------- 0--|
http://classicalguitartablature.blogspot.com/
E|--------------------------------|--------------------------------|
B|---------------------------- 2--| 3------ 3------ 3------ 3---- 3|
G|-------- 2-------------- 2------| 5-- 5------ 5------ 5------ 5--|
D|---- 2-------------- 2----------| 3---------- 3------------------|
A| 0---------- 0------------------| 5---------- 5-- 0---------- 0--|
E|---------------- 0--------------|--------------------------------|
http://classicalguitartablature.blogspot.com/
E|--------------------------------|--------------------------------|
B|------------ 3------------------| 0------ 0------ 0------ 0------|
G|---- 5-- 2-- 5---------- 5-- 3--| 2-- 2---- 2------ 2-------- 2--|
D|-------------------- 3----------| 1---------- 1-------------- 1--|
A| 5---------- 5-- 0---------- 0--| 2---------- 2------------------|
E|--------------------------------|---------------- 2---------- 2--|
http://classicalguitartablature.blogspot.com/
E|--------------------------------|--------------------------------|
B| 0---------- 0-------------- 2--| 3------ 3------ 3------ 3------|
G| 2-- 2------------------ 2------| 5-- 5------ 5------ 5------ 5--|
D| 1------ 4---------- 1----------| 3---------- 3------------------|
A| 2---------- 2------------------| 5---------- 5-- 0---------- 0--|
E|---------------- 2---------- 2--|--------------------------------|
http://classicalguitartablature.blogspot.com/
E|--------------------------------| 0-- 0-- 0-- 0-- 0-- 0-- 0------|
B| 3---------- 3-------------- 3--| 0-- 0-- 0-- 0-- 0-- 0-- 0------|
G|---- 5-- 2-- 5---------- 5------| 1-- 1-- 1-- 1-- 1-- 1-- 1------|
D|------------ 3------ 3----------|--------------------------------|
A| 5---------- 5-- 0---------- 0--|--------------------------------|
E|--------------------------------| 0-------------- 0---------- 0--|
http://classicalguitartablature.blogspot.com/
E|---- 0 0---- 0------------ 0----|--------------------------------|
B|---- 0 0---- 0------------ 0----|---- 5-- 4-- 5-- 4-- 5-- 4-- 5--|
G|---- 1 1---- 1------------ 1----|---- 5-- 5-- 5-- 5-- 5 5---- 5--|
D|---------------------- 0--------|---- 5-- 5-- 5-- 5-- 5 5---- 5--|
A|--------------------------------|--------------------------------|
E| 0---------------- 0------------| 5-------------- 0--------------|
http://classicalguitartablature.blogspot.com/
E|--------------------------------|--------------------------------|
B|--------------------------------|---- 5-- 4-- 5-- 4-- 5-- 4-- 5--|
G| 7---------- 5------------------|---- 5-- 5-- 5-- 5-- 5 5---- 5--|
D|-------- 7-------------- 7------|---- 5-- 5-- 5-- 5-- 5 5---- 5--|
A| 5------------------------------|--------------------------------|
E|---------------- 5---------- 5--| 5-------------- 0--------------|
http://classicalguitartablature.blogspot.com/
E|--------------------------------|------------------------------ 0|
B|--------------------------------|-------------- 1------ 3-- 1-- 1|
G| 7---------- 5------------------| 0------ 2-- 0 0-------------- 0|
D|-------- 7-------------- 7------|---- 2------------ 2------------|
A| 5------------------------------| 3---------------------------- 3|
E|---------------- 5---------- 5--|---------------- 3--------------|
http://classicalguitartablature.blogspot.com/
E|--------------------------------|--------------------------------|
B|---- 3 1------------------------|------------------------ 5------|
G|---- 0 0-------- 2---------- 2--|-------- 5------ 5--------------|
D|---- 2 2------ 2-------- 2------| 7-- 7------ 7------ 7------ 7--|
A|---------------- 0--------------| 5------------------------------|
E|--------------------------------|---------------- 5--------------|
http://classicalguitartablature.blogspot.com/
E|-------- 0----------------------|--------------------------------|
B|---------------- 3-- 1----------|--------------------------------|
G| 1---------------------- 2-- 0--| 2------ 2-------------- 2------|
D| 0------------------------------|---- 2-------------- 2----------|
A|--------------------------------| 0---------- 0------------------|
E| 0------------------------------|---------------- 0---------- 0--|
http://classicalguitartablature.blogspot.com/
E|--------------------------------|--------------------------------|
B|-------- 5----------------------|---- 0--------------------------|
G|---------------- 7-- 5----------| 2------ 2-- 0-- 2------ 2------|
D|---- 7------------------ 7-- 5--| 2------------------ 2----------|
A| 5---------- 5------------------| 0---------- 0------------------|
E|---------------- 5---------- 5--|---------------- 0---------- 0--|
http://classicalguitartablature.blogspot.com/
E|--------------------------------|--------------------------------|
B|-------- 5----------------------|---- 0--------------------------|
G|---------------- 7-- 5----------| 2------ 2-- 0-- 2------ 2------|
D|---- 7------------------ 7-- 5--| 2------------------ 2----------|
A| 5---------- 5------------------| 0---------- 0------------------|
E|---------------- 5---------- 5--|---------------- 0---------- 0--|
http://classicalguitartablature.blogspot.com/
E|--------------------------------|--------------------------------|
B|------------ 5------------------|------------------------------ 0|
G|------------ 7-------- 7------ 5|-------------------- 2----------|
D|------ 7------------------------|---- 7------ 5------ 2----------|
A| 5------------------------------|-------------------- 0----------|
E|--------------------------------|--------------------------------|
http://classicalguitartablature.blogspot.com/
E|--------------------------------|--------------------------------|
B|--------------------------------|--------------------------------|
G|------ 2-------- 0--------------|-------- 2----------------------|
D|--------------------------------|-------- 2----------------------|
A|--------------------------------|------ 0------------------------|
E|--------------------------------|--------------------------------|
http://classicalguitartablature.blogspot.com/
0 com

I Was Born To Love You (BASIC)

Freddie Mercury's tune fingerstyle chord melody guitar BASIC arrangement played in the key of G.
I Was Born To Love You-Freddie Mercury-BASIC Arrangement played in the key of G
http://classicalguitartablature.blogspot.com/
E| 7---------- 5-- 5---------- 5--| 7---------- 5-- 5---------- 5--|
B| 5------ 5-------------- 5------| 5------ 5-- 5-- 5------ 5------|
G| 6-- 6-------------- 6----------| 6-- 6------ 6------ 6----------|
D|--------------------------------|--------------------------------|
A|--------------------------------|--------------------------------|
E| 5------------------------------| 5------------------------------|
http://classicalguitartablature.blogspot.com/
E| 7---------------------- 7------| 7------------------ 5----------|
B| 5---------- 5------------------|------------ 5---------- 8-- 5--|
G|-------- 5----------------------|-------- 5----------------------|
D|---- 5-------------- 5------ 5--|---- 5--------------------------|
A| 5------------------------------| 5------------------------------|
E|--------------------------------|--------------------------------|
http://classicalguitartablature.blogspot.com/
http://classicalguitartablature.blogspot.com/
E|------------------ 3------ 2----|------------------ 3-------- 0--|
B|--------------------------------|---------- 3--------------------|
G| 0---------- 0------------------|-- 0----------------------------|
D|---- 0--------------------------|--------------------------------|
A|------------------------------ 2|------ 2-------- 2---- 2--------|
E| 3------ 3------ 3------ 3------|--------------------------------|
http://classicalguitartablature.blogspot.com/
E|--------------------------------|--------------------------------|
B|--------------------------------| 0---------- 1-------- 0--------|
G|-------- 0-- 0------------------| 0---------- 0-------- 0--------|
D|---- 2-------------- 2------ 2--| 0---------- 2-------- 0--------|
A| 3------ 3------ 3------ 3------| 2---------- 3---------- 2------|
E|--------------------------------|--------------------------------|
http://classicalguitartablature.blogspot.com/
E|--------------------------------|--------------------------------|
B| 1---------------- 0------------|--------------------------------|
G|---------------------- 2-- 0-- 2|------------------ 0---- 2------|
D|-- 2-------- 2------------------|---- 2------ 2------------------|
A| 0---- 0------ 0------ 0--------| 0------ 0---- 0-------- 0------|
E|--------------------------------|--------------------------------|
http://classicalguitartablature.blogspot.com/
E|--------------------------------|------------------ 3------------|
B|--------------------------------|-------------------- 0----------|
G|--------------------------------|-------------------- 0----------|
D| 4-- 0------ 0---- 0------ 0----|-- 0------ 0--------------------|
A| 5------ 5------ 3---- 3------ 2|------ 2-------- 0------ 0------|
E|--------------------------------|--------------------------------|
http://classicalguitartablature.blogspot.com/
E|-------------------- 3------ 2--|------------------ 2------ 3----|
B|--------------------------------|------------------ 3------ 3----|
G| 0---------- 0------------------|---- 0------ 0------------------|
D|---- 0--------------------------|--------------------------------|
A|--------------------------------| 2------ 2---- 2-------- 2------|
E| 3------ 3------ 3------ 3------|--------------------------------|
http://classicalguitartablature.blogspot.com/
E| 5------ 3-- 3------------------|--------------------------------|
B| 5---- 5---- 5---------------- 0|------------ 1-------- 0--------|
G|---- 5-------------- 5-------- 0|------------ 0-------- 0--------|
D|--------------------------------| 0---------- 2---------- 0------|
A| 3------ 3------ 3------ 3------| 2---------- 3---------- 2------|
E|--------------------------------|--------------------------------|
http://classicalguitartablature.blogspot.com/
E| 5-------------- 7-- 5----------|--------------------------------|
B| 5------ 8------ 5-- 5------ 8--| 7------ 5---------- 7----------|
G|---------------- 5-- 5------ 5--| 7---------- 7-------------- 7--|
D|---- 5------ 5-------------- 5--| 7------------------------------|
A| 0------ 0------ 0------ 0------| 5------ 5------ 5------ 5------|
E|--------------------------------|--------------------------------|
http://classicalguitartablature.blogspot.com/
E| 3------------------------------|--------------------------------|
B| 3------------------------------|------------------ 3-- 3-- 3----|
G|------------------ 0-------- 0--|-- 0------ 0---------- 0-- 0----|
D|---- 0------ 0---- 0-------- 0--|-- 0------ 0---------- 0-- 0----|
A|--------------------------------|--------------------------------|
E| 3------ 3------ 3------ 3------| 3---- 3-------- 3---- 3--------|
http://classicalguitartablature.blogspot.com/
E|--------------------------------|--------------------------------|
B|------------ 0------ 3 3---- 3--|------------ 0-------- 0-- 3----|
G| 0---- 0------------ 0-- 0-- 0--| 0------ 0---------- 0----------|
D| 0---- 0------------------------| 0------ 0----------------------|
A|--------------------------------|--------------------------------|
E| 3-------------- 3--------------| 3-------------- 3--------------|
http://classicalguitartablature.blogspot.com/
E|-- 0----------------------------| 0------ 2----------------------|
B| 3------ 0-- 3---------- 0-- 3--| 3---------- 3---------- 0-- 3--|
G|------ 2---- 2------------ 2----|------------ 2------------------|
D|---- 0------------ 0------------|-------------------- 0----------|
A| 2------------ 2----------------| 2-------------- 2--------------|
E|--------------------------------|--------------------------------|
http://classicalguitartablature.blogspot.com/
E| 3-- 2-- 3-- 2-- 3-- 2-- 3 2-- 3|------------ 0-- 0--------------|
B| 1-- 1-- 1-- 1-- 1-- 1-- 1 1-- 1|-------- 1---------- 1-- 0-- 1--|
G| 0------ 0-- 0-- 0-- 0-- 0-- 0 0|---- 0--------------------------|
D|--------------------------------|--------------------------------|
A| 3-------------- 3--------------| 3-------------- 3--------------|
E|--------------------------------|--------------------------------|
http://classicalguitartablature.blogspot.com/
E|--------------------------------|--------------------------------|
B|------------------------ 1------|------------ 1------ 1-- 1-- 0--|
G|-------- 2----------------------|-------- 2----------------------|
D|---- 2------ 2------ 2------ 2--|---- 2--------------------------|
A| 0-------------- 0--------------| 0-------------- 0--------------|
E|--------------------------------|--------------------------------|
http://classicalguitartablature.blogspot.com/
E|--------------------------------|--------------------------------|
B| 0-------------------------- 0--| 0-------------------------- 3--|
G| 2------ 2-- 5------ 5-- 5 2----|------ 2---- 5-------- 4--------|
D|---- 4--------------------------|-------------------- 4----------|
A| 5-------------- 5--------------| 5-------------- 5--------------|
E|--------------------------------|--------------------------------|
http://classicalguitartablature.blogspot.com/
E|--------------------------------|---------------------------- 3 5|
B| 5-- 3---------- 5-- 3----------| 5------ 3-- 5---------- 5---- 5|
G| 2---------- 4-- 2-------- 4----| 2---------------------------- 4|
D| 4-------------- 4--------------|---- 4-------------- 4----------|
A| 2-------------- 2--------------| 2-------------- 2--------------|
E|--------------------------------|--------------------------------|
http://classicalguitartablature.blogspot.com/
E|-- 3-------- 3-------------- 3--| 5-- 3------ 3------------ 3-- 7|
B|-------- 5-- 5------ 5-- 5------| 5------ 5---------- 5 5--------|
G|-------------------- 4-- 4------| 4------ 4---------- 4----------|
D|--------------------------------|--------------------------------|
A|--------------------------------|--------------------------------|
E| 0-------------- 0--------------| 0-------------- 0--------------|
http://classicalguitartablature.blogspot.com/
E|---------------- 5------------ 7|---------- 5-- 5----------------|
B| 7---------- 7------------ 7----|---------------------------- 7--|
G|------ 6-------------- 6--------|------ 6-------------- 6--------|
D|---- 5-------------- 5----------|-- 5-------------- 5------------|
A| 0-------------- 0------------ 0|-------------- 0----------------|
E|--------------------------------|--------------------------------|
http://classicalguitartablature.blogspot.com/
E| 7-------------------- 7--------| 7------------------ 5----------|
B| 5---------------------- 5------| 5------------------ 5-- 8 5----|
G|--------------------------------|------------------------ 5------|
D|---- 5------ 5------ 5------ 5--|---- 5------ 5-------------- 5--|
A| 5------ 5------ 5------ 5------| 5------ 5---- 5-------- 5------|
E|--------------------------------|--------------------------------|
http://classicalguitartablature.blogspot.com/
E|------------------ 3------ 2----|------------------ 3-------- 0--|
B|--------------------------------|---------- 3--------------------|
G| 0---------- 0------------------|-- 0----------------------------|
D|---- 0--------------------------|--------------------------------|
A|------------------------------ 2|------ 2-------- 2---- 2--------|
E| 3------ 3------ 3------ 3------|--------------------------------|
http://classicalguitartablature.blogspot.com/
E|--------------------------------|--------------------------------|
B|--------------------------------| 0---------- 1-------- 0--------|
G|-------- 0-- 0------------------| 0---------- 0-------- 0--------|
D|---- 2-------------- 2------ 2--| 0---------- 2-------- 0--------|
A| 3------ 3------ 3------ 3------| 2---------- 3---------- 2------|
E|--------------------------------|--------------------------------|
http://classicalguitartablature.blogspot.com/
E|--------------------------------|--------------------------------|
B| 1---------------- 0------------|--------------------------------|
G|---------------------- 2-- 0-- 2|------------------ 0---- 2------|
D|-- 2-------- 2------------------|---- 2------ 2------------------|
A| 0---- 0------ 0------ 0--------| 0------ 0---- 0-------- 0------|
E|--------------------------------|--------------------------------|
http://classicalguitartablature.blogspot.com/
E|--------------------------------|------------------ 3------------|
B|--------------------------------|-------------------- 0----------|
G|--------------------------------|-------------------- 0----------|
D| 4-- 0------ 0---- 0------ 0----|-- 0------ 0--------------------|
A| 5------ 5------ 3---- 3------ 2|------ 2-------- 0------ 0------|
E|--------------------------------|--------------------------------|
http://classicalguitartablature.blogspot.com/
E|-------------------- 3------ 2--|------------------ 2------ 3----|
B|--------------------------------|------------------ 3------ 3----|
G| 0---------- 0------------------|---- 0------ 0------------------|
D|---- 0--------------------------|--------------------------------|
A|--------------------------------| 2------ 2---- 2-------- 2------|
E| 3------ 3------ 3------ 3------|--------------------------------|
http://classicalguitartablature.blogspot.com/
E| 5------ 3-- 3------------------|--------------------------------|
B| 5---- 5---- 5---------------- 0|------------ 1-------- 0--------|
G|---- 5-------------- 5-------- 0|------------ 0-------- 0--------|
D|--------------------------------| 0---------- 2---------- 0------|
A| 3------ 3------ 3------ 3------| 2---------- 3---------- 2------|
E|--------------------------------|--------------------------------|
http://classicalguitartablature.blogspot.com/
E| 5-------------- 7-- 5----------|--------------------------------|
B| 5------ 8------ 5-- 5------ 8--| 7------ 5---------- 7----------|
G|---------------- 5-- 5------ 5--| 7---------- 7-------------- 7--|
D|---- 5------ 5-------------- 5--| 7------------------------------|
A| 0------ 0------ 0------ 0------| 5------ 5------ 5------ 5------|
E|--------------------------------|--------------------------------|
http://classicalguitartablature.blogspot.com/
E| 3------------------------------|---------------------- 0-- 3-- 5|
B| 3------------------------------|------------------ 3-- 3-- 3----|
G| 0---------- 0------ 0---- 0----|-- 0-------- 0-------- 0-- 0----|
D|---- 0------ 0------ 0------ 0--|-- 0-------- 0------------------|
A|--------------------------------|--------------------------------|
E| 3------ 3------ 3------ 3------| 3------ 3---- 3------ 3--------|
http://classicalguitartablature.blogspot.com/
E|------ 3------------------------|-------------------- 3------ 3--|
B| 5---- 5------------ 5------ 5--|---- 5------ 5-------------- 5--|
G|-- 5-------- 5------ 5------ 5--|---- 5------ 5------------------|
D|--------------------------------|--------------------------------|
A| 3------ 3------ 3------ 3------| 3------ 3------ 3------ 3------|
E|--------------------------------|--------------------------------|
http://classicalguitartablature.blogspot.com/
E| 0-------------- 0-------- 0----|------------------------ 0-- 3--|
B| 3-- 3-- 3-- 0-- 0---- 0---- 0--|---- 3------------ 3---- 3-- 3--|
G| 0-- 0-- 0-- 0-- 0---- 0---- 0--|---- 0------------ 0---- 0-- 0--|
D|---- 0-- 0-- 0-------- 0--------|---- 0------ 0---- 0------------|
A|--------------------------------|--------------------------------|
E| 3------ 3------ 3---- 3--------| 3------ 3------ 3------ 3------|
http://classicalguitartablature.blogspot.com/
E| 5------ 3------ 5------ 3------| 7------------------------------|
B| 5------ 5------ 5------ 5------| 8--10--------------------------|
G|---- 5------ 5------ 5------ 5--| 9------ 9---------- 9------ 9--|
D|--------------------------------|--------------------------------|
A| 3------ 3------ 3------ 3------|--------------------------------|
E|--------------------------------| 9------ 9------ 9------ 9------|
http://classicalguitartablature.blogspot.com/
E|--------------------------------|---------------------------- 3--|
B|------ 0------------ 0----------|-------- 0---------- 0------ 0--|
G| 0---------- 2------ 0----------| 0---------- 2------------------|
D|---- 0---------------------- 0--|---- 0--------------------------|
A|--------------------------------|--------------------------------|
E| 3------ 3------ 3------ 3------| 2------ 2------ 2------ 2------|
http://classicalguitartablature.blogspot.com/
E|------ 2---- 0------------------|--------------------------------|
B|------ 0---- 0 0----------------|--------------------------------|
G|---- 0---------------- 2---- 2--|-- 0----------------------------|
D|--------------------------------|------------ 0------ 0------ 0--|
A|--------------------------------|--------------------------------|
E| 0------ 0------ 0------ 0------| 0---- 0-------- 0------ 0------|
http://classicalguitartablature.blogspot.com/
E|-------- 0-- 0------ 2----------|-------- 2-- 2------ 3----------|
B| 2------ 2-- 2------ 2----------| 3------ 3-- 3------ 3----------|
G| 0------ 0-- 0------------------| 0------ 0-- 0------------------|
D|---- 2---------------------- 2--|---- 2--------------------------|
A| 0------ 0------ 0------ 0------| 0------ 0------ 0------ 0------|
E|--------------------------------|--------------------------------|
http://classicalguitartablature.blogspot.com/
E| 5------ 5---- 5------------ 7--|---- 7-------------- 5----------|
B| 5------ 5---- 5---- 8------ 8--|---- 8------------ 8---- 8-- 5--|
G| 5------ 5---- 5---- 5------ 5--|---- 5------ 5---- 5---- 5-- 5--|
D|-------------------- 5----------|---------------------- 5---- 5--|
A| 5------ 5------ 5------ 5------| 5------ 5------ 5------ 5------|
E|--------------------------------|--------------------------------|
http://classicalguitartablature.blogspot.com/
E|------------------ 3------ 2----|------------------ 3-------- 0--|
B|--------------------------------|---------- 3--------------------|
G| 0---------- 0------------------|-- 0----------------------------|
D|---- 0--------------------------|--------------------------------|
A|------------------------------ 2|------ 2-------- 2---- 2--------|
E| 3------ 3------ 3------ 3------|--------------------------------|
http://classicalguitartablature.blogspot.com/
E|--------------------------------|--------------------------------|
B|--------------------------------| 0---------- 1-------- 0--------|
G|-------- 0-- 0------------------| 0---------- 0-------- 0--------|
D|---- 2-------------- 2------ 2--| 0---------- 2-------- 0--------|
A| 3------ 3------ 3------ 3------| 2---------- 3---------- 2------|
E|--------------------------------|--------------------------------|
http://classicalguitartablature.blogspot.com/
E|--------------------------------|--------------------------------|
B| 1---------------- 0------------|--------------------------------|
G|---------------------- 2-- 0-- 2|------------------ 0---- 2------|
D|-- 2-------- 2------------------|---- 2------ 2------------------|
A| 0---- 0------ 0------ 0--------| 0------ 0---- 0-------- 0------|
E|--------------------------------|--------------------------------|
http://classicalguitartablature.blogspot.com/
E|--------------------------------|------------------ 3------------|
B|--------------------------------|-------------------- 0----------|
G|--------------------------------|-------------------- 0----------|
D| 4-- 0------ 0---- 0------ 0----|-- 0------ 0--------------------|
A| 5------ 5------ 3---- 3------ 2|------ 2-------- 0------ 0------|
E|--------------------------------|--------------------------------|
http://classicalguitartablature.blogspot.com/
E|-------------------- 3------ 2--|------------------ 2------ 3----|
B|--------------------------------|------------------ 3------ 3----|
G| 0---------- 0------------------|---- 0------ 0------------------|
D|---- 0--------------------------|--------------------------------|
A|--------------------------------| 2------ 2---- 2-------- 2------|
E| 3------ 3------ 3------ 3------|--------------------------------|
http://classicalguitartablature.blogspot.com/
E| 5------ 3-- 3------------------|--------------------------------|
B| 5---- 5---- 5---------------- 0|------------ 1-------- 0--------|
G|---- 5-------------- 5-------- 0|------------ 0-------- 0--------|
D|--------------------------------| 0---------- 2---------- 0------|
A| 3------ 3------ 3------ 3------| 2---------- 3---------- 2------|
E|--------------------------------|--------------------------------|
http://classicalguitartablature.blogspot.com/
E| 5-------------- 7-- 5----------|--------------------------------|
B| 5------ 8------ 5-- 5------ 8--| 7------ 5---------- 7----------|
G|---------------- 5-- 5------ 5--| 7---------- 7-------------- 7--|
D|---- 5------ 5-------------- 5--| 7------------------------------|
A| 0------ 0------ 0------ 0------| 5------ 5------ 5------ 5------|
E|--------------------------------|--------------------------------|
http://classicalguitartablature.blogspot.com/
E| 3---------- 3-------------- 3--|--------------------------------|
B| 1---------- 0---------- 1------|---- 3--------------------------|
G| 0---------- 0---------- 0------|---- 2--------------------------|
D|--------------------------------|---- 0--------------------------|
A| 3---------- 2---------- 0------|--------------------------------|
E|--------------------------------|---- 2--------------------------|
http://classicalguitartablature.blogspot.com/
E|--------------------------------|--------------------------------|
B| 3------------------------------|--------------------------------|
G| 0------------------------------|--------------------------------|
D| 0------------------------------|--------------------------------|
A|--------------------------------|--------------------------------|
E| 3------------------------------|--------------------------------|
http://classicalguitartablature.blogspot.com/