To celebrate the anniversary, I am giving you (finally...) : iPhone LickByNeck !!!!!!

Don't Wanna Lose You Now (BASIC)

Gloria Estefan's tune fingerstyle chord melody guitar BASIC arrangement played in the key of F.
Don't Wanna Lose You-Gloria Estefan-BASIC Arrangement played in the key of F
http://classicalguitartablature.blogspot.com/
E|---- 1-- 1---------- 1 1--------|---- 1-- 1---------- 1-- 1------|
B|-- 1-------- 1-- 1---------- 1--|-- 1-------- 1---- 1-------- 1--|
G|--------------------------------|--------------------------------|
D| 3------------ 3----------------| 3------------ 3----------------|
A|--------------------------------| 1------------ 1----------------|
E| 1------------ 1----------------|--------------------------------|
http://classicalguitartablature.blogspot.com/
E|---- 1-- 1---------- 1-- 1------|---- 1-- 1-------- 1---- 0------|
B|-- 1-------- 1---- 1-------- 1--|-- 1-------- 1-------------- 3 1|
G|--------------------------------|--------------------------------|
D| 3------------ 3----------------| 3------------------------------|
A|--------------------------------| 1------------ 1----------------|
E| 1------------ 1----------------|--------------------------------|
http://classicalguitartablature.blogspot.com/
http://classicalguitartablature.blogspot.com/
E|---- 1-- 1---------- 1-- 1------|---- 1-- 1-------- 1---- 0------|
B|-- 1-------- 1---- 1-------- 1--|-- 1-------- 1-------------- 3 1|
G|--------------------------------|--------------------------------|
D| 3------------ 3----------------| 3------------------------------|
A|--------------------------------| 1------------ 1----------------|
E| 1------------ 1----------------|--------------------------------|
http://classicalguitartablature.blogspot.com/
E|---- 1-- 1---------- 1-- 1------|---- 1-- 1-------- 1---- 0------|
B|-- 1-------- 1---- 1-------- 1--|-- 1-------- 1-------------- 3 1|
G|--------------------------------|--------------------------------|
D| 3------------ 3----------------| 3------------------------------|
A|--------------------------------| 1------------ 1----------------|
E| 1------------ 1----------------|------------------------------ 1|
http://classicalguitartablature.blogspot.com/
E|--------------------------------|--------------------------------|
B|-------- 3----------------------|--------------------------------|
G|------------ 2-------- 2-- 0----| 0------------------------ 0----|
D|---- 3-- 3------------ 3---- 3--|-- 3-------------- 3---- 3-- 3--|
A|-------------- 5----------------| 6---------- 6------------------|
E|-------- 1----------------------|--------------------------------|
http://classicalguitartablature.blogspot.com/
E|--------------------------------|--------------------------------|
B|-- 1-------- 1---------- 1------| 3---- 3---- 3---- 6---- 5-- 3 1|
G| 2---------- 2---------- 2------| 3---- 3---- 3---- 3------------|
D| 3---------- 3---- 3------------| 3---- 3---- 3---- 3------------|
A|--------------------------------| 3---------- 3------------------|
E| 1---------- 1-------------- 1--|--------------------------------|
http://classicalguitartablature.blogspot.com/
E|---- 1-- 1---------- 1-- 1------|------------------ 5------ 3----|
B|-- 1-------- 1---- 1-------- 1--|------ 3---- 3---- 3-------- 6--|
G|--------------------------------|------ 3---- 3------------------|
D| 3------------ 3----------------|------ 3---- 3------------------|
A|--------------------------------|--------------------------------|
E| 1------------ 1----------------| 6---------- 6------------------|
http://classicalguitartablature.blogspot.com/
E|------------------ 1-- 1--------|---- 1-- 1-------- 1---- 0------|
B| 3---- 3-- 1-------------- 1----|-- 1-------- 1-------------- 3 1|
G| 2---- 2-- 2--------------------|------------------------------ 2|
D| 3---- 3-- 3------------------ 3| 3---------------------------- 3|
A|--------------------------------| 1------------ 1----------------|
E| 1---------- 1------------------|--------------------------------|
http://classicalguitartablature.blogspot.com/
E|--------------------------------|--------------------------------|
B|---------- 3--------------------|--------------------------------|
G|------------ 2------ 2------ 0--|---- 0---- 0-------------- 0----|
D|-------------------- 3---- 0----|---- 3---- 3------ 3---- 3-- 3--|
A|---------------- 5------ 5------| 6------ 6 6--------------------|
E| 1-------- 1--------------------|--------------------------------|
http://classicalguitartablature.blogspot.com/
E|--------------------------------|-- 1---- 0------ 1---- 0--------|
B|-- 1-------- 1------ 1-- 1-- 1--| 3 3-------- 1-- 1-------- 1----|
G| 2---------- 2------ 2-- 2-- 2--| 3------------------------------|
D| 3---------- 3---------- 3-- 3--|--------------------------------|
A|--------------------------------| 3------------------------------|
E| 1---- 1-- 0 1------------------|--------------------------------|
http://classicalguitartablature.blogspot.com/
E|------ 8------------------------|--------------------------------|
B|1011--------11------10---- 6----|-- 6-- 5------ 6---- 5----------|
G|10----------10------10---- 5----|---------- 5---------------- 5--|
D|10----------10------10------ 5--|--------------------------------|
A| 8---------- 8------------------|--------------------------------|
E|--------------------------------| 6-------- 6--------------------|
http://classicalguitartablature.blogspot.com/
E|-------- 8----------------------|--------------------------------|
B|10--11------11------10------ 8--|-- 6-- 5------ 6---- 5--------10|
G|10--10------10--------10---- 5--|---------- 5---------- 5-- 5--10|
D|10----------10-------------- 5--|------------------------------10|
A| 8---------- 8------------------|------------------------------ 8|
E|--------------------------------| 6-------- 6--------------------|
http://classicalguitartablature.blogspot.com/
E|------ 8-------------------- 3--|--------------------------------|
B|--11------11------10-------- 6--|------ 6------------------------|
G|--------1010------------10-- 3--|------ 3------------ 5-- 5-- 5--|
D|----------10--------------------|------ 5-------------------- 7--|
A|--------------------------------| 6-------- 6 6------------------|
E|------------10------------------|--------------------------------|
http://classicalguitartablature.blogspot.com/
E|------ 5------------ 5-- 5-- 5--|-- 6----------------------------|
B|-------- 6---------- 6-- 6-- 5--|-- 6-- 5------ 6---- 5----------|
G|-------------------- 5-- 5-- 7--|---------- 5---------------- 5--|
D|--------------------------------|--------------------------------|
A| 8-------- 8 8------------------|--------------------------------|
E|--------------------------------| 8------------------------------|
http://classicalguitartablature.blogspot.com/
E|------ 8------------------------|--------------------------------|
B|1011--------11------10---- 6----|-- 6-- 5------ 6---- 5----------|
G|10----------10------10---- 5----|---------- 5---------------- 5--|
D|10----------10------10------ 5--|--------------------------------|
A| 8---------- 8------------------|--------------------------------|
E|--------------------------------| 6-------- 6--------------------|
http://classicalguitartablature.blogspot.com/
E|-------- 8----------------------|--------------------------------|
B|10--11------11------10------ 8--|-- 6-- 5------ 6---- 5--------10|
G|10--10------10--------10---- 5--|---------- 5---------- 5-- 5--10|
D|10----------10-------------- 5--|------------------------------10|
A| 8---------- 8------------------|------------------------------ 8|
E|--------------------------------| 6-------- 6--------------------|
http://classicalguitartablature.blogspot.com/
E|------ 8-------------------- 3--|--------------------------------|
B|--11------11------10-------- 6--|------ 6------------------------|
G|--------1010------------10-- 3--|------ 3------------ 5-- 5-- 5--|
D|----------10--------------------|------ 5-------------------- 7--|
A|--------------------------------| 6-------- 6 6------------------|
E|------------10------------------|--------------------------------|
http://classicalguitartablature.blogspot.com/
E|------ 5------------ 5-- 5------|--------------------------------|
B|-------- 6---------- 6-- 6-- 3--|------ 3---- 3---------- 3------|
G|-------------------- 5-- 5-- 3--|------ 3---- 3---------- 3------|
D|---------------------------- 3--|------ 3---- 3------ 3----------|
A| 8-------- 8 8------------------| 3-------- 0 3-------------- 3--|
E|--------------------------------|--------------------------------|
http://classicalguitartablature.blogspot.com/
E|---- 1-- 1---------- 1-- 1------|---- 1-- 1---------- 1-- 1------|
B|-- 1-------- 1---- 1-------- 1--|-- 1-------- 1---- 1-------- 1--|
G|--------------------------------|--------------------------------|
D| 3------------ 3----------------| 3------------ 3----------------|
A|--------------------------------| 1------------ 1----------------|
E| 1------------ 1----------------|--------------------------------|
http://classicalguitartablature.blogspot.com/
E|--------------------------------|--------------------------------|
B|-- 1----------------------------|--------------------------------|
G|-- 0----------------------------|--------------------------------|
D| 3------------------------------|--------------------------------|
A|--------------------------------|--------------------------------|
E| 1------------------------------|--------------------------------|
http://classicalguitartablature.blogspot.com/

0 ความคิดเห็น:

แสดงความคิดเห็น