To celebrate the anniversary, I am giving you (finally...) : iPhone LickByNeck !!!!!!

Evergreen (BASIC)

Barbara Streisand's tune fingerstyle chord melody guitar BASIC arrangement played in the key of A.
Evergreen-Barbara Streisand-BASIC Arrangement played in the key of A
http://classicalguitartablature.blogspot.com/
E| 7---- 5------ 5 7---- 5--------| 9--10 9 7----------------------|
B| 5-- 5------ 5-------------- 5--| 7---- 7------ 7--10---- 7---- 7|
G|-- 6------ 6-------- 6---- 6----|---- 7------ 7-------- 7---- 7--|
D|--------------------------------|-- 7------ 7-------- 7---- 7----|
A| 0------ 0-------- 0---- 0------| 9------ 9-------------- 9------|
E|--------------------------------|--------------------------------|
http://classicalguitartablature.blogspot.com/
E| 7---- 5------ 7---- 5----------| 9--10 9 7----------------------|
B| 5-------- 5-------- 5------ 5--| 7---- 7------ 7--10---- 7---- 7|
G| 6-- 6-------------------- 6----|---- 7------ 7-------- 7---- 7--|
D|-- 7------ 7-------- 7-- 7------|-- 7------ 7-------- 7---- 7----|
A| 0------ 0------ 0--------------| 9------ 9-------------- 9------|
E|--------------------------------|--------------------------------|
http://classicalguitartablature.blogspot.com/
http://classicalguitartablature.blogspot.com/
E|--------------------------------| 0---- 2-------------- 2--------|
B| 2---- 2-------------- 2 2 3 5--| 4-------------------- 4-- 4----|
G| 2-- 2---- 2-- 2---- 2----------| 4-- 4------ 4------ 4------ 4--|
D|-- 2-------- 2---- 2------------|-- 4-------------- 4---------- 4|
A| 0-------------- 0--------------| 0-------------- 0--------------|
E|--------------------------------|--------------------------------|
http://classicalguitartablature.blogspot.com/
E|---------- 2--------------------| 2------------------------------|
B|------ 3-- 3-------------- 2 3--| 2 5-- 2-------------- 2------ 5|
G| 4-- 4------ 4------ 4 4--------| 2 2------ 4------ 2-------- 4--|
D|-- 4-------------- 4------------|-- 2---------- 2-- 2------ 2----|
A| 0-------------- 0--------------| 0-------------- 0--------------|
E|--------------------------------|------------------------ 4------|
http://classicalguitartablature.blogspot.com/
E| 5---------------------- 2 4 5--| 4---- 7------------------------|
B| 2---- 2-------------- 2--------| 5---------- 5-------- 5--------|
G|---- 2------ 2------ 2----------|---- 4---- 4-------- 4---- 4----|
D|-- 2------ 2-- 2-- 2------------|-- 6---- 6-------- 6-------- 6--|
A|--------------------------------| 4-------------- 4--------------|
E| 2-------------- 2--------------|--------------------------------|
http://classicalguitartablature.blogspot.com/
E| 2---- 5------------------------|---------------------------- 0--|
B| 3---------- 3------------ 2----| 0---- 0-------------- 0--------|
G|---- 2---- 2-------- 2----------|---- 0-- 0---------- 1------ 2--|
D|-- 4---- 4-------- 4-- 4--------|-- 0-------- 0---- 0------ 0----|
A| 2-------------- 2--------------|--------------------------------|
E|------------------------ 5------| 3------------ 3 0--------------|
http://classicalguitartablature.blogspot.com/
E|--------------------------------| 2------------------------------|
B|-- 2------ 2-------- 2-- 2 3 5--| 3---- 3-------------- 3--------|
G|-- 2-- 2-- 2------ 2------------|---- 2------ 4------ 4-- 4------|
D|---- 2-------- 2-- 2------------|-- 4------ 4------ 4-------- 4--|
A| 0-------------- 0--------------|--------------------------------|
E|--------------------------------| 0-------------- 0--------------|
http://classicalguitartablature.blogspot.com/
E|------ 7-------- 5 2------------|--------------------------------|
B|------ 7------ 7---- 5 2--------|---- 2-------------- 2-------- 5|
G|-- 7------ 7-------------- 2-- 4|-- 4------ 2------ 2-------- 4--|
D|-- 7---- 7----------------------|-- 2-------------- 2------ 2----|
A|--------------------------------| 0------------ 0----------------|
E| 7------------ 0----------------|------------------------ 4------|
http://classicalguitartablature.blogspot.com/
E|------ 5---------------- 2 4 5--| 4-- 7--------------------------|
B|------ 2------ 2------ 2 2 2----| 5-- 5---- 5---------- 5--------|
G|---- 2------ 2------ 2-- 2 2 2--| 4 4-------------- 4------ 4----|
D|-- 4------ 4------ 4------------|-- 6---- 6-------- 6-------- 6--|
A|--------------------------------| 4-------------- 4--------------|
E| 2-------------- 2--------------|--------------------------------|
http://classicalguitartablature.blogspot.com/
E|------ 2-- 5-- 2------ 2--------| 0------------------------------|
B|------ 2-- 2---------------- 2--| 0---- 0-------------- 0---- 3--|
G|---- 2 2-- 2-------- 2---- 2----|---- 0-- 0---------- 0---- 4----|
D|-- 4-------------- 4------------|-- 2------ 2------ 0------ 5----|
A| 5-------------- 5--------------| 3------------ 3----------------|
E|--------------------------------|---------------- 0------ 5------|
http://classicalguitartablature.blogspot.com/
E|------ 5-- 4-- 2------ 2-- 4 5 4|------ 4------------------------|
B|-------------------- 2----------|---------- 5-- 5------ 5--------|
G|---- 2------------ 2------------|---- 4------ 6---- 6------ 6----|
D|-- 4----------------------------|-- 6-------------- 6-------- 6--|
A| 5-------------- 5--------------| 4-------------- 4--------------|
E|--------------------------------|--------------------------------|
http://classicalguitartablature.blogspot.com/
E|------ 5-- 4-- 2------ 4-- 5-- 4|--------------------------------|
B|--------------------------------|------ 5------------ 0------ 3--|
G|---- 2-------------- 2----------|---- 4---- 4------ 0------ 4----|
D|-- 4-------------- 0------------|-- 6-------- 6---- 0---- 5------|
A| 5-------------- 5--------------| 4------------ 4----------------|
E|--------------------------------|---------------- 0------ 5------|
http://classicalguitartablature.blogspot.com/
E|---------- 5 4---------- 4-- 5 9|--------10 9--------------------|
B|------ 2------ 7------ 7------10|------10----10 5------ 5--------|
G|---- 2-------------- 5-------- 9|-- 9---------- 5---- 5---- 5----|
D|-- 4-------------- 4------------| 9---------------- 8-------- 8--|
A| 5------------------------------|--------------------------------|
E|---------------- 4--------------| 9-------------- 8--------------|
http://classicalguitartablature.blogspot.com/
E|--------------------------------|------10-- 910-- 9 7-------- 9--|
B|------1010 9--10 9 7------ 7----|---- 7 7-------- 7-------- 7----|
G|-- 9-- 9 9 9-- 9 8---- 8---- 8--|---- 7 7------ 7------ 7------ 6|
D|-- 7-- 7 7 7-- 7 7-- 7-------- 7|-- 7---------------- 7----------|
A|--------------------------------|------------------------------ 0|
E| 7-------------- 7--------------| 0------------ 0----------------|
http://classicalguitartablature.blogspot.com/
E| 9 7 5--------------------------|------ 7------------------------|
B| 5 5 5---- 5---------------- 5--| 710--10--10----------10--------|
G|-- 6 6 6---- 6------ 6 6-- 7 6--| 7 7-- 7-- 7-------- 7-- 7------|
D|------ 7------ 7-- 7------------| 9 9------ 9 9 9 9---------- 9--|
A|---------------- 0--------------| 0-------------- 0--------------|
E|--------------------------------|--------------------------------|
http://classicalguitartablature.blogspot.com/
E|------ 7-------- 5 2------------|--------------------------------|
B|------ 7------ 7---- 5 2--------|---- 2-------------- 2-------- 5|
G|-- 7------ 7-------------- 2-- 4|-- 4------ 2------ 2-------- 4--|
D|-- 7---- 7----------------------|-- 2-------------- 2------ 2----|
A|--------------------------------| 0------------ 0----------------|
E| 7------------ 0----------------|------------------------ 4------|
http://classicalguitartablature.blogspot.com/
E|------ 9-------------------- 9--|--------------------------------|
B|10------------10----1010--12----|12--12---- 9-------------- 9----|
G| 9-- 9------ 9------ 9 9------ 9|-- 9--------11 9------ 9---- 9--|
D|--11------11------11--11------11|11------------------11----------|
A| 9-------------- 9--------------|--------------------------------|
E|--------------------------------| 9-------------- 9--------------|
http://classicalguitartablature.blogspot.com/
E|------10 9 7-- 7---- 7 7-- 910--| 9-------- 5--------------------|
B|------ 8 8--10 8---- 8 8--------| 7-- 7---------------- 3-- 6----|
G|---- 9-- 9-------- 9-- 9--------|---- 6-------------- 4----------|
D|-- 7------------ 7--------------|------------------ 3------ 3----|
A| 0-------------- 0--------------| 5-------------- 5--------------|
E|--------------------------------|--------------------------------|
http://classicalguitartablature.blogspot.com/
E|--------------------------------|---- 7--------------------------|
B| 5---- 5-------------- 5-- 3 5--| 4------------------ 4----------|
G|---- 2---- 2 2------ 2----------|-- 4---- 4---- 4-- 4---- 4------|
D|-- 2-------- 2---- 2------------| 4---------- 4-- 4---------- 4--|
A| 0-------------- 0--------------| 0-------------- 0--------------|
E|--------------------------------|--------------------------------|
http://classicalguitartablature.blogspot.com/
E|------ 6------------------------| 5-------- 5-------------- 5----|
B| 6-------------------- 6--------| 5---- 5---- 5-------- 6--------|
G| 7-- 7---- 7-- 7-- 7---- 7------|---- 6-------------- 7------ 7--|
D|-- 8-------- 8---- 8-------- 8--|-- 7-------------- 8---------- 8|
A| 0-------------- 0--------------| 0------------ 0 0--------------|
E|--------------------------------|--------------------------------|
http://classicalguitartablature.blogspot.com/
E|-------- 5------------ 5--------|---------- 5------------------ 5|
B|------ 7---- 7-- 8-------- 8----| 7---- 7---- 7------ 6------ 6--|
G|---- 8---------- 9-- 9------ 9--| 8-- 8-------- 8---- 7-- 7------|
D|-- 9---------- 9--10----------10|-- 9------------ 9---- 8--------|
A| 0-------------- 0--------------| 0------------------ 0----------|
E|--------------------------------|--------------------------------|
http://classicalguitartablature.blogspot.com/
E|--------------------------------| 5------------------------------|
B| 6---------------------------- 5|--------------------------------|
G|---- 7------------------------ 6|--------------------------------|
D|-------- 8-------------------- 7|--------------------------------|
A|---------------------------- 0--|--------------------------------|
E|--------------------------------|--------------------------------|
http://classicalguitartablature.blogspot.com/

0 ความคิดเห็น:

แสดงความคิดเห็น