To celebrate the anniversary, I am giving you (finally...) : iPhone LickByNeck !!!!!!

I Can't Stop Loving You (BASIC)

Ray Charles' tune fingerstyle chord melody guitar BASIC arrangement played in the key of G.
I Can't Stop Loving You-Ray Charles-BASIC Arrangement played in the key of G
http://classicalguitartablature.blogspot.com/
E|------ 7------ 7----------------| 3-------------- 0--------------|
B|------ 8-------- 8----10--------| 1---------- 1------------------|
G|---------------- 7---- 7--------|-------- 0-------------- 0-- 0--|
D|---- 9-------------- 9------ 9--|---- 2-------------- 2---- 2----|
A|--------------------------------| 3------------------------------|
E| 7---------- 7-- 7--------------|---------------- 3--------------|
http://classicalguitartablature.blogspot.com/
E|-------------------------- 0----|--------------------------------|
B|-------- 1-- 1-- 1-- 3---- 1----| 3-------- 3-- 3----------------|
G|-------- 0-- 0-- 0--------------| 0------ 0------ 4--------------|
D|---- 2------ 2-- 2--------------|---- 0---------- 5-- 5----------|
A| 3------------------------------|------------ 2-- 5------ 2-- 5--|
E|---------------- 3--------------| 3---------------------------- 3|
http://classicalguitartablature.blogspot.com/
http://classicalguitartablature.blogspot.com/
E|------------------------ 0------|--------------------------------|
B|---------------- 0--------------| 3------ 3----------------------|
G|-------- 0------ 0--------------| 5---------- 5-- 2------ 2------|
D|---- 0------ 0------ 0------ 0--|---- 4---------- 4-- 4------ 4--|
A|---------------- 2--------------| 5-------------- 0--------------|
E| 3------------------------------|--------------------------------|
http://classicalguitartablature.blogspot.com/
E|--------------------------------|--------------------------------|
B|------------ 0-------------- 0--|---------- 0-------------- 0----|
G|------ 2------------ 0-- 2------|-------- 0-------------- 0------|
D|---- 4-------------- 0-- 0------|---- 0------ 0------ 0------ 0--|
A| 5------------------------------|---------------- 5--------------|
E|---------------- 2--------------| 3------------------------------|
http://classicalguitartablature.blogspot.com/
E|-------- 7---- 7----------------| 3-------------- 0--------------|
B|-------- 8---- 8--------10------| 1---------- 1------------------|
G|-------------- 7------ 7--------|-------- 0-------------- 0-- 0--|
D|---- 9-------------- 9----------|---- 2-------------- 2---- 2----|
A|--------------------------------| 3------------------------------|
E| 7---------- 7-- 7--------------|---------------- 3--------------|
http://classicalguitartablature.blogspot.com/
E|-------------------------- 0----|--------------------------------|
B|-------- 1-- 1-- 1-- 3---- 1----| 3-------- 3-- 3----------------|
G|-------- 0-- 0-- 0--------------| 0------ 0------ 4--------------|
D|---- 2------ 2-- 2--------------|---- 0---------- 5-- 5----------|
A| 3------------------------------|------------ 2-- 5------ 2-- 5--|
E|---------------- 3--------------| 3---------------------------- 3|
http://classicalguitartablature.blogspot.com/
E|------------------------ 0------|--------------------------------|
B|---------------- 0--------------| 3------ 3----------------------|
G|-------- 0------ 0--------------| 5---------- 5-- 2------ 2------|
D|---- 0------ 0------ 0------ 0--|---- 4---------- 4-- 4------ 4--|
A|---------------- 2--------------| 5-------------- 0--------------|
E| 3------------------------------|--------------------------------|
http://classicalguitartablature.blogspot.com/
E|--------------------------------|--------------------------------|
B|------------ 3------ 0----------|---------- 0------------ 3------|
G|------------ 2-------------- 2--| 0------ 0-- 0 3-------- 3---- 0|
D|---- 0-- 4----------------------|---- 0---------- 2-- 2-------- 0|
A| 5------------------------------|---------------- 3---------- 3--|
E|---------------- 2--------------| 3------------------------------|
http://classicalguitartablature.blogspot.com/
E|--------------------------------|--------------------------------|
B|-------- 3------ 0--------------| 0------------------------------|
G|---------------- 2-- 2---- 0----|-------- 0-------------- 0------|
D|---- 0-------- 4----------------|---- 0-------------- 0----------|
A|-------------- 5----------------|---------------- 5---------- 5--|
E| 3------------------------------| 3---------- 3---------------- 3|
http://classicalguitartablature.blogspot.com/
E|-------- 3---- 0-------------- 0|--------------------------------|
B|-------- 3---- 0---- 3---- 1-- 1|---------- 1-------------- 1----|
G|-------------- 0---- 0---- 0----|------ 0---------------- 0------|
D|---- 0-------------- 0---- 0----|---- 2-------------- 2----------|
A|-------------- 2-------------- 3|------------ 3------------------|
E| 3------------------------------|---------------- 3---------- 3--|
http://classicalguitartablature.blogspot.com/
E|-------- 3------ 3-------- 0----| 3 0----------------------------|
B|---------------- 1--------------| 3 3 3---------------- 3--------|
G|------------ 0---------- 0------|---- 0---- 0-------- 4----------|
D|---- 2-------------- 2----------|-------- 0-------- 5------ 5----|
A| 3------------------------------|---------------- 5---------- 5--|
E|---------------- 3--------------| 3---------- 3------------------|
http://classicalguitartablature.blogspot.com/
E|------------ 0------------------|--------------------------------|
B|-------- 0---- 3---------- 0----|--------------------------------|
G|------------------------ 0------| 2------ 2-------------- 2-- 2--|
D|---- 0-------------- 0----------|---- 4---- 4-------- 4---- 4----|
A|---------------- 2--------------| 5---------- 5-- 0--------------|
E| 3------------------------------|--------------------------------|
http://classicalguitartablature.blogspot.com/
E|--------------------------------|--------------------------------|
B|------ 3-------- 0------------ 0|---------- 0-- 3---------- 3----|
G|---------------- 2-- 2---- 0----|-------- 0------ 4------ 4------|
D|---- 4-------- 0----------------|---- 0-------- 5---- 5------ 5--|
A| 5------------------------------|---------------- 5--------------|
E|-------------- 2-------------- 3|------------ 3------------------|
http://classicalguitartablature.blogspot.com/
E|-------- 3-- 5-- 3--------------| 0------------------------------|
B|--------------------------------| 1-------- 1-------------- 1----|
G|------------------------ 0 5----|-------- 0-------------- 0------|
D|---- 0-------------- 0----------|---- 2-------------- 2----------|
A|---------------- 2--------------| 3---------- 3------------------|
E| 3------------------------------|---------------- 3---------- 3--|
http://classicalguitartablature.blogspot.com/
E|-------- 3------ 3-- 5---- 3-- 7|-- 5 3--------------------------|
B|-------- 1------ 5-- 5---- 5----| 3 3 3---- 5-- 3------ 3--------|
G|---- 0---------- 5-- 5---- 5----| 4 4 4-------------- 0---- 0----|
D|--------------------------------|------------------ 0------------|
A| 3------------------------------|---------------- 2---------- 2--|
E|---------------- 3--------------| 3------------------------------|
http://classicalguitartablature.blogspot.com/
E|---------------- 2-------- 5----| 3------------------------------|
B|-------- 3-------------- 3------| 3-------- 3------------ 3------|
G|---- 2---- 2-------- 2----------|-------- 0------ 4-- 4----------|
D|-- 4-------- 4---- 4------------|------ 0-------- 5 5------ 5----|
A| 5------------------------------|---------------- 5---------- 5--|
E|---------------- 2--------------| 3---------- 3------------------|
http://classicalguitartablature.blogspot.com/
E|-------- 7------ 7--------------| 3-------------- 0--------------|
B|-------- 8------ 8------10------| 1---------- 1------------------|
G|---------------- 7------ 7------|-------- 0-------------- 0-- 0--|
D|---- 9-------------- 9----------|---- 2-------------- 2---- 2----|
A|--------------------------------| 3------------------------------|
E| 7---------- 7-- 7--------------|---------------- 3--------------|
http://classicalguitartablature.blogspot.com/
E|-------------------------- 0----|--------------------------------|
B|-------- 1-- 1-- 1-- 3---- 1----| 3-------- 3-- 3----------------|
G|-------- 0-- 0-- 0--------------| 0------ 0------ 4--------------|
D|---- 2------ 2-- 2--------------|---- 0---------- 5-- 5----------|
A| 3------------------------------|------------ 2-- 5------ 2-- 5--|
E|---------------- 3--------------| 3---------------------------- 3|
http://classicalguitartablature.blogspot.com/
E|------------------------ 0------|--------------------------------|
B|---------------- 0--------------| 3------ 3----------------------|
G|-------- 0------ 0--------------| 5---------- 5-- 2------ 2------|
D|---- 0------ 0------ 0------ 0--|---- 4---------- 4-- 4------ 4--|
A|---------------- 2--------------| 5-------------- 0--------------|
E| 3------------------------------|--------------------------------|
http://classicalguitartablature.blogspot.com/
E|--------------------------------|--------------------------------|
B|------------ 0-------------- 0--|---------- 0-------------- 0----|
G|------ 2------------ 0-- 2------|-------- 0-------------- 0------|
D|---- 4-------------- 0-- 0------|---- 0------ 0------ 0------ 0--|
A| 5------------------------------|---------------- 5--------------|
E|---------------- 2--------------| 3------------------------------|
http://classicalguitartablature.blogspot.com/
E|-------- 7---- 7----------------| 3-------------- 0--------------|
B|-------- 8---- 8--------10------| 1---------- 1------------------|
G|-------------- 7------ 7--------|-------- 0-------------- 0-- 0--|
D|---- 9-------------- 9----------|---- 2-------------- 2---- 2----|
A|--------------------------------| 3------------------------------|
E| 7---------- 7-- 7--------------|---------------- 3--------------|
http://classicalguitartablature.blogspot.com/
E|-------------------------- 0----|--------------------------------|
B|-------- 1-- 1-- 1-- 3---- 1----| 3-------- 3-- 3----------------|
G|-------- 0-- 0-- 0--------------| 0------ 0------ 4--------------|
D|---- 2------ 2-- 2--------------|---- 0---------- 5-- 5----------|
A| 3------------------------------|------------ 2-- 5------ 2-- 5--|
E|---------------- 3--------------| 3---------------------------- 3|
http://classicalguitartablature.blogspot.com/
E|------------------------ 0------|--------------------------------|
B|---------------- 0--------------| 3------ 3----------------------|
G|-------- 0------ 0--------------| 5---------- 5-- 2------ 2------|
D|---- 0------ 0------ 0------ 0--|---- 4---------- 4-- 4------ 4--|
A|---------------- 2--------------| 5-------------- 0--------------|
E| 3------------------------------|--------------------------------|
http://classicalguitartablature.blogspot.com/
E|--------------------------------|--------------------------------|
B|-- 3----------------------------|---- 3------------ 0------------|
G|-- 2----------------------------|--------------------------------|
D| 4---------------- 0-------- 4--|--------------------------------|
A| 5------------------------------|--------------------------------|
E|--------------------------------|--------------------------------|
http://classicalguitartablature.blogspot.com/
E|--------------------------------|-------------------- 0----------|
B|--------------------------------|---- 3-- 3---- 3---- 1----------|
G|-- 2------------------------ 0--|---- 0-- 0---- 0---- 0----------|
D|-------------------------- 0----|---- 0-- 0---- 0---------- 2----|
A|--------------------------------|--------------------------------|
E|-------------------------- 3----|-------------------- 3----------|
http://classicalguitartablature.blogspot.com/
E|------ 3-------------- 3--------|--------------------------------|
B|---------------------- 0--------|--------------------------------|
G| 0-------------------- 0--------|--------------------------------|
D|--------------------------------|--------------------------------|
A|--------------------------------|--------------------------------|
E|-------------------- 3----------|--------------------------------|
http://classicalguitartablature.blogspot.com/

0 ความคิดเห็น:

แสดงความคิดเห็น