To celebrate the anniversary, I am giving you (finally...) : iPhone LickByNeck !!!!!!

If We Hold On Together (BASIC)

Diana Ross' tune fingerstyle chord melody guitar BASIC arrangement played in the key of C.
If We Hold On Together-Diana Ross-BASIC Arrangement played in the key of C
http://classicalguitartablature.blogspot.com/
E|---------- 0-- 3---------- 2----|------ 5-- 8---- 0--------------|
B|------ 1------ 1----------------| 7-- 6---------- 0---- 3--------|
G|---- 0------------------ 0------| 5---------------------- 0------|
D|---- 2-------------- 2----------|------------------ 0-------- 0--|
A| 3------------------------------| 8------------------------------|
E|---------------- 0--------------|---------------- 3--------------|
http://classicalguitartablature.blogspot.com/
E|------------ 0-- 3---------- 2--|-------- 5-- 8-- 0--------------|
B|-------- 1-- 1-- 1--------------| 7-- 6---------- 0------ 3------|
G|---- 0------ 0---------- 0------| 5---------------------- 0------|
D|-------------------- 2----------|-------------------- 0------ 0--|
A| 3------------------------------| 8------------------------------|
E|---------------- 0--------------|---------------- 3--------------|
http://classicalguitartablature.blogspot.com/
http://classicalguitartablature.blogspot.com/
E|------------ 0------------------|------------ 0------------------|
B| 3------ 3------ 1------ 1------| 3------ 3------ 1--------------|
G| 0------ 0------------------ 0--| 0---------------------- 0------|
D|---- 2-------------- 2----------|---- 2-------------- 2----------|
A| 3------------------------------| 3------------------------------|
E|--------------------------------|---------------------------- 3--|
http://classicalguitartablature.blogspot.com/
E|------------ 0-------------- 3--| 3-------- 1 0------------------|
B| 3---- 3-------- 1--------------| 1-------------- 3---------- 3--|
G| 0---------------------- 0------| 2------ 2------ 0------ 0------|
D|---- 2-------------- 2----------|---- 3-------- 0---- 0----------|
A| 3------------------------------|--------------------------------|
E|---------------- 0--------------| 1-------------- 3--------------|
http://classicalguitartablature.blogspot.com/
E| 5-------------- 3------ 0------|-- 8-- 7-- 5-- 3------ 0--------|
B| 5------ 5------ 1------ 1------|------ 5-- 5-- 0------ 0--------|
G| 5------ 5------ 0--------------|-- 5-- 5-- 5------------------ 5|
D|---- 7------ 7------ 2------ 2--|------------------ 2-------- 2--|
A| 0-------------- 3--------------| 0---------------------------- 8|
E|--------------------------------|---------------- 0--------------|
http://classicalguitartablature.blogspot.com/
E| 5-------------- 0---------- 3--|--------------------------------|
B| 8---- 8---- 6-- 1--------------| 3---------------------- 3------|
G|---- 5------------------ 0------| 0------ 0-------------- 0------|
D|-- 7---------------- 2-------- 0|---- 0-------------- 0----------|
A|---------------- 3--------------|--------------------------------|
E|--------------------------------| 3---------- 3-- 3---------- 3--|
http://classicalguitartablature.blogspot.com/
E| 5-------------- 3------ 0------|-- 8-- 7-- 5-- 3------ 0--------|
B| 5------ 5------ 1------ 1------|------ 5-- 5-- 0------ 0--------|
G| 5------ 5------ 0--------------|-- 5-- 5-- 5------------------ 5|
D|---- 7------ 7------ 2------ 2--|------------------ 2-------- 2--|
A| 0-------------- 3--------------| 0---------------------------- 8|
E|--------------------------------|---------------- 0--------------|
http://classicalguitartablature.blogspot.com/
E| 5-------------- 0--------------|--------------------------------|
B| 8---- 8---- 6-- 1------ 3-- 1--|---- 3------------------ 3------|
G|---- 5---------------- 0--------|---- 0------ 0---------- 0------|
D|-- 7---------------- 2----------|-------- 0---- 0---- 0----------|
A|---------------- 3--------------|--------------------------------|
E|--------------------------------| 3-------------- 3---------- 3--|
http://classicalguitartablature.blogspot.com/
E|---------- 0-- 3----------------|--------------------------------|
B|-------- 1 1-- 0-------- 0------|-------------- 0----------------|
G|---- 0-------------------- 0----| 2------ 2---- 0-------- 0------|
D|-------------------- 2----------|---- 3------------ 0------------|
A| 3-------- 3--------------------|--------------------------------|
E|---------------- 0---------- 0--| 1---------- 1 3------------ 3--|
http://classicalguitartablature.blogspot.com/
E|---------- 0---- 3-------- 0----| 1---------- 0------------------|
B|-------- 1 1---- 0------ 0------| 1---------- 1-- 3--------------|
G|---- 0--------------------------|-------- 2------ 0------ 0------|
D|-------------------- 2----------|---- 3-------- 0---- 0----------|
A| 3-------- 3--------------------|--------------------------------|
E|---------------- 0---------- 0--| 1-------------- 3---------- 3--|
http://classicalguitartablature.blogspot.com/
E|---------- 0-- 3----------------| 7---- 7------------------ 8----|
B|-------- 1 1---- 0---- 1-- 1----|10--------10----10------10------|
G| 0---- 0-------------- 0-- 0-- 9|---- 9-------------- 9-------- 5|
D|-- 2-------------- 2------------|--------------------------------|
A| 3-------- 3------------------ 8|---------- 8-- 8---------- 8-- 0|
E|---------------- 0---------- 0--|--------------------------------|
http://classicalguitartablature.blogspot.com/
E| 8------------------------ 0----|-------------------------- 8----|
B| 5-------------- 3---- 3--------| 5-------- 5---- 5--------------|
G|-- 5------ 5---- 2---- 2--------| 5---- 5-------- 5 7-- 7------ 5|
D|------ 7------ 3---- 3-------- 5|---- 5-------- 5----------------|
A|--------------------------------|------------------------------ 0|
E|-------------- 1-------------- 8|-------------- 8------ 8--------|
http://classicalguitartablature.blogspot.com/
E| 8------------------------------|-------------------------- 8----|
B|-- 5------------ 3-------- 1----|--------------------------------|
G|---- 5---- 5---- 2---- 2------ 5|-------- 5-------------- 5------|
D|-------- 7---- 3-- 3------------|-- 5---------------- 5----------|
A|------------ 0------------------|--------------------------------|
E|---------------- 1-------- 1-- 8|------------ 8-- 8---------- 8--|
http://classicalguitartablature.blogspot.com/
E| 5-------- 8---- 7----10--------|------ 7-- 8--------------------|
B| 5-------- 5---- 8--------------|-- 8---------------------- 8----|
G| 5------ 5 5---- 7-- 7----------|-- 5------------------ 5--------|
D|---- 7--------------------------|---- 5-------------- 5----------|
A| 8---------- 8-- 8---------- 8--| 7-------- 7--------------------|
E|--------------------------------|-------------- 8---------- 8----|
http://classicalguitartablature.blogspot.com/
E|---------- 8-- 7------------ 5 3|-------- 3----------------------|
B| 6------------ 3------ 3--------|-------- 1------ 0---- 1--------|
G| 5---- 5------ 4---- 4----------|---------------- 0---- 0------ 3|
D|---- 7--------------------------|---- 2-------------- 2----------|
A| 5---------- 5------------------| 3---------- 3-- 3---------- 3 6|
E|-------------- 3------------ 3--|--------------------------------|
http://classicalguitartablature.blogspot.com/
E| 3-------- 6---- 5---- 8--------|------------ 5 6----------------|
B| 3------ 3-- 3-- 6--------------|---- 6--------------------------|
G|---- 3-------- 5-- 5------------|---- 3------------------ 3------|
D|---- 5--------------------------|-------- 3---------- 3----------|
A|------------ 6 6------------ 6--| 5---------- 5------------------|
E|--------------------------------|---------------- 6---------- 6--|
http://classicalguitartablature.blogspot.com/
E|------ 3-- 4--------------------|------ 2-- 3--------------------|
B| 4---- 1-------------- 1------ 3|------------------------ 0------|
G| 1-- 1---------------- 1------ 2|------ 2---------------- 0------|
D|-- 1---------------- 1----------|---- 4-------------- 0----------|
A|--------------------------------| 5---------- 5------------------|
E| 4---------- 4-- 4-------- 4----|---------------- 3---------- 3--|
http://classicalguitartablature.blogspot.com/
E|---------- 0-- 3----------------|--------------------------------|
B|-------- 1 1-- 0-------- 0------|-------------- 0----------------|
G|---- 0-------------------- 0----| 2------ 2---- 0-------- 0------|
D|-------------------- 2----------|---- 3------------ 0------------|
A| 3-------- 3--------------------|--------------------------------|
E|---------------- 0---------- 0--| 1---------- 1 3------------ 3--|
http://classicalguitartablature.blogspot.com/
E|---------- 0---- 3-------- 0----| 1---------- 0------------------|
B|-------- 1 1---- 0------ 0------| 1---------- 1-- 3--------------|
G|---- 0--------------------------|-------- 2------ 0------ 0------|
D|-------------------- 2----------|---- 3-------- 0---- 0----------|
A| 3-------- 3--------------------|--------------------------------|
E|---------------- 0---------- 0--| 1-------------- 3---------- 3--|
http://classicalguitartablature.blogspot.com/
E|---------- 0-- 3----------------| 7---- 7------------------ 8----|
B|-------- 1 1---- 0---- 1-- 1----|10--------10----10------10------|
G| 0---- 0-------------- 0-- 0-- 9|---- 9-------------- 9-------- 5|
D|-- 2-------------- 2------------|--------------------------------|
A| 3-------- 3------------------ 8|---------- 8-- 8---------- 8-- 0|
E|---------------- 0---------- 0--|--------------------------------|
http://classicalguitartablature.blogspot.com/
E| 8-------------- 8---- 7--------|--------------------------------|
B| 5-------------- 6---- 6--------| 1---------- 1--13----12--------|
G|---- 5------ 5 5---- 5----------|-------- 2-- 2-- 9--------------|
D|-------- 7----------------------|---- 2-- 2----10----10-------- 7|
A|------------ 0------------------|-------------- 9------------ 9 5|
E|-------------- 4------------ 4--| 3---------- 3------------------|
http://classicalguitartablature.blogspot.com/
E|---------------- 8-------- 7----|--------------------------------|
B|-------- 6------ 0-------- 0----|--------------------------------|
G| 5---------- 5-- 0--------------| 0------------------------------|
D|---- 7-------------- 0----------|--------------------------------|
A|------------ 5------------------|--------------------------------|
E|---------------- 3--------------|--------------------------------|
http://classicalguitartablature.blogspot.com/
E|-- 8----------------------------|---------------------- 0--------|
B| 5------------ 5---------- 5----|------------ 1-------- 0--------|
G| 5-------- 5-------------- 5----|------------ 2-------- 0--------|
D|------ 5-------------- 5------ 5|-------- 3---------- 0------ 0--|
A|--------------------------------|--------------------------------|
E| 8---------------- 0------------|---- 1------------ 1-- 3--------|
http://classicalguitartablature.blogspot.com/
E|--------------------------------| 0------------------------------|
B|-- 3----------------------------|--------------------------------|
G|-- 0-------------------------- 0|--------------------------------|
D|-------- 0----------------------|--------------------------------|
A|------------------------------ 3|--------------------------------|
E|--------------------------------|--------------------------------|
http://classicalguitartablature.blogspot.com/

0 ความคิดเห็น:

แสดงความคิดเห็น