To celebrate the anniversary, I am giving you (finally...) : iPhone LickByNeck !!!!!!

I've Had The Time Of My Life (BASIC)

The Beatles' tune fingerstyle chord melody guitar BASIC arrangement played in the key of E.
I've Had The Time Of My Life-Dirty Dancing Glee-BASIC Arrangement played in the key of E
http://classicalguitartablature.blogspot.com/
E| 0-------------- 0--------------|-------------------------- 4----|
B| 0---------- 0-------------- 0--| 5---------- 5-- 5---- 7-- 5----|
G|------ 1---------------- 1------| 4---- 4-------- 4------------ 2|
D|-- 2----------------------------|---- 6---------- 6--------------|
A|--------------------------------| 4---------------------------- 5|
E| 0------------------------------|--------------------------------|
http://classicalguitartablature.blogspot.com/
E| 5 4 2---------- 2--------------| 5-- 5-- 5 5---- 4-- 2------ 2--|
B| 2---------- 2---- 2------------|---- 2-- 2-- 2---------- 5------|
G|------ 2---------------- 2-- 4 2|---- 2-- 2-- 2------------------|
D|--------------------------------|--------------------------------|
A|------------------------------ 5|--------------------------------|
E|--------------------------------|--------------------------------|
http://classicalguitartablature.blogspot.com/
http://classicalguitartablature.blogspot.com/
E| 0---------- 0---------- 2------|-------------------------- 4----|
B| 0------------------ 0----------| 5---------- 5-- 5---- 7--------|
G|-------- 1----------------------| 4------ 4-- 4-- 4------------ 2|
D|---- 2---------- 2--------------| 6-- 6------ 6-- 6--------------|
A|------------------------------ 4|------------------------------ 5|
E| 0------------------------------|--------------------------------|
http://classicalguitartablature.blogspot.com/
E| 5 4 2-------- 2------ 2--------|---------- 7--------------------|
B| 2 2 2------ 2------------------|10--10--10---- 9-- 7-------- 7--|
G|-- 2 2-- 2-------- 2------ 4----| 9-- 9-- 9------------ 9--------|
D|------------------------------ 7|---- 7 7------------------------|
A|--------------------------------|--------------------------------|
E|------------------------------ 7|--------------------------------|
http://classicalguitartablature.blogspot.com/
E| 0------------------------------|--------------------------------|
B| 0------------------------------|--------------------------------|
G| 9------------------------------|--------------------------------|
D|------ 9------------------------|---------------------- 9--11----|
A|------ 7------ 7-- 7------------|------ 7------ 7 7--------------|
E| 0------------------ 0------ 0--| 0---------------- 0------------|
http://classicalguitartablature.blogspot.com/
E|--------------------------------|--------------------------------|
B| 3-- 2-- 3 2 3---------- 0-- 2--| 3-- 2-- 3 2 3---- 2-- 0--------|
G| 1-- 1 1-- 1 1-------- 1---- 1--| 1-- 1---- 1 1-------- 1-- 2----|
D| 0-- 0---- 0-- 0-------- 0-- 0--| 0-- 0---- 0 0------------------|
A|--------------------------------|--------------------------------|
E| 0---------- 0------ 0----------| 0-------- 0--------------------|
http://classicalguitartablature.blogspot.com/
E|--------------------------------|--------------------------------|
B| 0------------------------------|------------------------ 0-- 2--|
G|--------------------------------|--------------------------------|
D| 0------------ 2-- 2------------|-------------- 2-- 2------------|
A|--------------------------------|--------------------------------|
E| 0------------------ 0------ 0--| 0------------------ 0----------|
http://classicalguitartablature.blogspot.com/
E|--------------------------------|------------------------ 2------|
B| 3-- 2-- 3 2 3---------- 0-- 2--| 3-- 2-- 3 2 3------------------|
G| 1-- 1 1-- 1 1-------- 1---- 1--| 1-- 1---- 1 1---------- 1------|
D| 0-- 0---- 0-- 0-------- 0-- 0--| 0-- 0---- 0-- 0-- 0------------|
A|--------------------------------|--------------------------------|
E| 0---------- 0------ 0----------| 0---------- 0------------------|
http://classicalguitartablature.blogspot.com/
E|------ 4------------------------|--------------------------------|
B| 5-- 7-- 5----------------------|--------------------------------|
G| 4-- 4--------------------------|------------------------ 4-- 6--|
D| 6-- 6--------------------------|------------------------ 6 6----|
A|--------------------------------|-------------- 7-- 7------------|
E| 0---------- 0------ 0---- 0----| 0------------------ 0----------|
http://classicalguitartablature.blogspot.com/
E|--------------------------------|--------------------------------|
B| 3-- 2-- 3 2 3---------- 0-- 2--| 3-- 2-- 3 2 3---- 2-- 0--------|
G| 1-- 1 1-- 1 1-------- 1---- 1--| 1-- 1---- 1 1-------- 1-- 2----|
D| 0-- 0---- 0-- 0-------- 0-- 0--| 0-- 0---- 0 0------------------|
A|--------------------------------|--------------------------------|
E| 0---------- 0------ 0----------| 0-------- 0--------------------|
http://classicalguitartablature.blogspot.com/
E|--------------------------------|--------------------------------|
B| 0------------------------------|------------------------ 0-- 2--|
G|--------------------------------|--------------------------------|
D| 0------------ 2-- 2------------|-------------- 2-- 2------------|
A|--------------------------------|--------------------------------|
E| 0------------------ 0------ 0--| 0------------------ 0----------|
http://classicalguitartablature.blogspot.com/
E|--------------------------------|------------------------ 2------|
B| 3-- 2-- 3 2 3---------- 0-- 2--| 3-- 2-- 3 2 3------------------|
G| 1-- 1 1-- 1 1-------- 1---- 1--| 1-- 1---- 1 1---------- 1------|
D| 0-- 0---- 0-- 0-------- 0-- 0--| 0-- 0---- 0-- 0-- 0------------|
A|--------------------------------|--------------------------------|
E| 0---------- 0------ 0----------| 0---------- 0------------------|
http://classicalguitartablature.blogspot.com/
E|------ 4------------------------|--------------------------------|
B| 5-- 7-- 5----------------------|--------------------------------|
G| 4-- 4--------------------------|------------------------ 4-- 6--|
D| 6-- 6--------------------------|------------------------ 6 6----|
A|--------------------------------|-------------- 7-- 7------------|
E| 0---------- 0------ 0---- 0----| 0------------------ 0----------|
http://classicalguitartablature.blogspot.com/
E|-------------------------- 2----|-------- 2----------------------|
B|-------------- 2---- 2---- 2----| 5------ 2-------------------- 3|
G|---------------- 2-- 2---- 2----| 2---------------------------- 0|
D|---------------- 2--------------| 2---------------------------- 0|
A|--------------------------------|--------------------------------|
E| 5---- 5---- 5-- 5---------- 5--| 5-- 5-------------- 5-- 5---- 3|
http://classicalguitartablature.blogspot.com/
E|--------------------------------|--------------------------------|
B|-- 3------ 3-- 3-- 1------ 0----|------------------------ 0------|
G|-- 0------ 0-- 0-- 0------ 0----| 2 0-------------------- 0------|
D|-- 0------ 0-- 0-- 0------ 0----| 0------------------------------|
A|--------------------------------|--------------------------------|
E|------------ 3-------------- 3--|------ 3-- 3------ 3------ 3----|
http://classicalguitartablature.blogspot.com/
E|-------------------------- 2----|-------- 2----------------------|
B|-------------- 2---- 2---- 2----| 5------ 2----------------------|
G|---------------- 2-- 2---- 2----| 2---------------------------- 4|
D|---------------- 2--------------| 2------------------------------|
A|--------------------------------|--------------------------------|
E| 5---- 5---- 5-- 5---------- 5--| 5-- 5-------------- 5-- 5------|
http://classicalguitartablature.blogspot.com/
E|-------------------------- 4----|--------------------------------|
B|-------------- 4---- 4---- 4----| 7-------------- 5------ 7------|
G|-------------- 4---- 4---- 4----| 4-------------- 4------ 4------|
D| 4------------ 4---- 4----------| 4-------------- 4------ 4------|
A|--------------------------------|--------------------------------|
E| 7---- 7---- 7-- 7-- 7---- 7----| 7---- 7---- 7-- 7------ 7------|
http://classicalguitartablature.blogspot.com/
E|--------------------------------|-------------------------- 4-- 5|
B| 5---------- 5-------- 7-- 5----|------ 5------ 5---- 7---- 5-- 2|
G| 4---------- 4------ 4---- 4----|------ 4------ 4---- 4---- 4-- 2|
D| 6---------- 6------------ 6----|------ 6------ 6---- 6----------|
A|--------------------------------| 4-------- 4-- 4-------------- 5|
E| 0---- 0---- 0------------------|--------------------------------|
http://classicalguitartablature.blogspot.com/
E|-- 4 2--------------------------| 5-- 5-- 5-- 5 4-- 2------ 2----|
B|-- 2----------------------------| 2-- 2-- 2-- 2 2-- 2-- 5--------|
G|-- 2 2---------------------- 4--| 2-- 2------ 2 2-- 2---- 2---- 4|
D|-------------------- 4------ 4--|--------------------------------|
A|------------ 5-------------- 5--| 5---------- 5------------ 5----|
E|--------------------------------|--------------------------------|
http://classicalguitartablature.blogspot.com/
E|--------------------------------|-------------------------- 4-- 5|
B| 5---------- 5-------- 7-- 5----|------ 5---- 5-- 5-- 7---- 5-- 2|
G|------------ 4------ 4------ 4--|------ 4---- 4-- 4-- 4---- 4-- 2|
D| 6---------- 6-------------- 6--|------ 6---- 6-- 6-- 6----------|
A|--------------------------------| 4---------- 4-- 4------------ 5|
E| 0---- 0---- 0------------------|--------------------------------|
http://classicalguitartablature.blogspot.com/
E|-- 4 2--------------------------|------------ 7-- 4 2------ 2----|
B|-- 2----------------------------|10--10--10--10-- 2 2---- 5------|
G|-- 2 2---------------------- 4--| 9-- 9-- 9------ 2------ 2---- 4|
D|-------------------- 4------ 4--| 7-- 7--------------------------|
A|------------ 5-------------- 5--| 9---------- 9-- 2---------- 2--|
E|--------------------------------|--------------------------------|
http://classicalguitartablature.blogspot.com/
E|--------------------------------|-------------------------- 4-- 5|
B| 5---------- 5-------- 7-- 5----|------ 5---- 5-- 5-- 7---- 5-- 2|
G|------------ 4------ 4------ 4--|------ 4---- 4-- 4-- 4---- 4-- 2|
D| 6---------- 6-------------- 6--|------ 6---- 6-- 6-- 6----------|
A|--------------------------------| 4---------- 4-- 4------------ 5|
E| 0---- 0---- 0------------------|--------------------------------|
http://classicalguitartablature.blogspot.com/
E|-- 4 2--------------------------| 5-- 5-- 5-- 5 4-- 2------ 2----|
B|-- 2----------------------------| 2-- 2-- 2-- 2 2-- 2-- 5--------|
G|-- 2 2---------------------- 4--| 2-- 2------ 2 2-- 2---- 2---- 4|
D|-------------------- 4------ 4--|--------------------------------|
A|------------ 5-------------- 5--| 5---------- 5------------ 5----|
E|--------------------------------|--------------------------------|
http://classicalguitartablature.blogspot.com/
E|--------------------------------|-------------------------- 4-- 5|
B| 5---------- 5-------- 7-- 5----|------ 5---- 5-- 5-- 7---- 5-- 2|
G|------------ 4------ 4------ 4--|------ 4---- 4-- 4-- 4---- 4-- 2|
D| 6---------- 6-------------- 6--|------ 6---- 6-- 6-- 6----------|
A|--------------------------------| 4---------- 4-- 4------------ 5|
E| 0---- 0---- 0------------------|--------------------------------|
http://classicalguitartablature.blogspot.com/
E|-- 4 2--------------------------|------------ 7-- 4 2------ 2----|
B|-- 2----------------------------|10--10--10--10-- 2 2---- 5------|
G|-- 2 2---------------------- 4--| 9-- 9-- 9------ 2------ 2------|
D|-------------------- 4------ 4--| 7-- 7--------------------------|
A|------------ 5-------------- 5--| 9---------- 9-- 2---------- 2--|
E|--------------------------------|--------------------------------|
http://classicalguitartablature.blogspot.com/
E| 0------------------------------|------------------------------ 0|
B|--------------------------------|------------------------------ 0|
G|--------------------------------|------------------------------ 1|
D|--------------------------------|--------------------------------|
A| 3-- 0---- 5---- 2------ 7------|---- 9--------10------12--------|
E|------ 2------------ 3------ 8--| 5------10-- 7----12------14-- 0|
http://classicalguitartablature.blogspot.com/
E|---------- 0------------ 2------|-------------------------- 4----|
B|-------------------- 0------ 5--|------------ 5-- 5-- 7----------|
G|------ 1------------------------|-------- 4-- 4-- 4------------ 2|
D|-- 2----------------------------|---- 6------ 6-- 6--------------|
A|------------------------------ 4|------------------------------ 5|
E|--------------------------------|--------------------------------|
http://classicalguitartablature.blogspot.com/
E| 5 4 2---------- 2--------------|-- 5---- 5-- 5---- 7---- 4---- 2|
B| 2 2 2------ 2---------- 0---- 0|-- 2-------- 5------------------|
G|-------- 2---------- 2----------|-- 2-------- 4---------- 2------|
D|--------------------------------|--------------------------------|
A|--------------------------------|---------------------- 0--------|
E|--------------------------------| 2---------- 4------------------|
http://classicalguitartablature.blogspot.com/
E|--------------------------------|--------------------------------|
B|---- 5------ 7------------------|---------------- 5--------------|
G|---- 6------ 6------------------|---------------- 4--------------|
D|---- 6------ 6------------------|-------------- 6----------------|
A|--------------------------------|--------------------------------|
E|---- 6--------------------------|-------------- 7----------------|
http://classicalguitartablature.blogspot.com/

0 ความคิดเห็น:

แสดงความคิดเห็น