To celebrate the anniversary, I am giving you (finally...) : iPhone LickByNeck !!!!!!

Love Is In The Air (BASIC)

John Paul Young's tune fingerstyle chord melody guitar BASIC arrangement played in the key of A.
Love Is In The Air-John Paul Young-BASIC Arrangement played in the key of A
http://classicalguitartablature.blogspot.com/
E|--------------------------------|--------------------------------|
B|--------------------------------|--------------------------------|
G| 2-------------- 2--------------| 2-------------- 2--------------|
D| 2-------------- 2--------------| 2-------------- 2--------------|
A| 0---- 0-------- 0---- 0--------| 0---- 0-------- 0-- 0----------|
E|------------ 0-------------- 0--|------------ 0-------------- 0--|
http://classicalguitartablature.blogspot.com/
E|--------------------------------|--------------------------------|
B|--------------------------------|--------------------------------|
G| 2-------------- 2--------------| 2-------------- 2--------------|
D| 2-------------- 2--------------| 2-------------- 2--------------|
A| 0---- 0-------- 0---- 0--------| 0---- 0-------- 0-- 0----------|
E|------------ 0-------------- 0--|------------ 0-------------- 0--|
http://classicalguitartablature.blogspot.com/
http://classicalguitartablature.blogspot.com/
E|--------------------------------|---------------- 4-- 5 5-- 5----|
B| 5 5-- 5-- 2 5------------------|-------- 5-- 5------ 2 2-- 2-- 7|
G| 2 2-- 2-- 2 2------------------|-------- 2-- 2-- 2-- 2 2-- 2 6--|
D| 2 2-- 2-- 2--------------------|-------- 2-- 2---------------- 7|
A| 0---- 0-------- 0---- 0--------| 0---- 0-------- 0---- 0------ 5|
E|------------ 0-------------- 0--|------------ 0-------------- 0--|
http://classicalguitartablature.blogspot.com/
E|--------------------------------|--------------------------------|
B|---------------- 7--------------|--------------------------------|
G|---------- 6---------- 6--------|--------------------------------|
D|---- 7---------------------- 7--|--------------------------------|
A|---- 5---------- 5---- 5--------| 5-- 5---------- 5-- 5----------|
E|------------ 5-------------- 5--|------------ 5-------------- 5--|
http://classicalguitartablature.blogspot.com/
E|--------------------------------|---------------- 4-- 5 5-- 5----|
B| 5 5-- 5-- 2 5------------------|-------- 5-- 5------ 2 2-- 2-- 7|
G| 2 2-- 2-- 2 2------------------|-------- 2-- 2-- 2-- 2 2-- 2 6--|
D| 2 2-- 2-- 2--------------------|-------- 2-- 2---------------- 7|
A| 0---- 0-------- 0---- 0--------| 0---- 0-------- 0---- 0------ 5|
E|------------ 0-------------- 0--|------------ 0-------------- 0--|
http://classicalguitartablature.blogspot.com/
E|--------------------------------|---------------------------- 5--|
B|---------------- 7--------------|------------------------ 7---- 9|
G|---------- 6---------- 6--------|--------------------------------|
D|---- 7---------------------- 7--|--------------------------------|
A|---- 5---------- 5---- 5--------| 5-- 5---------- 5-- 5----------|
E|------------ 5-------------- 5--|------------ 5-------------- 5--|
http://classicalguitartablature.blogspot.com/
E| 7---- 7---- 7-- 7-- 9------ 7--| 5------------------------------|
B| 9---- 9---- 9-- 9-- 9------ 7--|--------------------------------|
G| 9---- 9---- 9-- 9-- 9---- 7 7--|--------------------------------|
D|--------------------------------|--------------------------------|
A| 7---- 7-------- 7---- 7--------| 5---- 5-------- 5---- 5--------|
E|------------ 7-------------- 7--|------------ 5-------------- 5--|
http://classicalguitartablature.blogspot.com/
E| 7-- 7------ 7-- 7-- 9----------|--------------------------------|
B| 9-- 9------ 9-- 9-- 9------12--|10----------------------10--10--|
G| 9-- 9------ 9-- 9-- 9----------| 9------------------------------|
D|----------------------------11--|11------------------------------|
A| 7---- 7-------- 7---- 7--------| 9-- 9---------- 9-- 9----------|
E|------------ 7-------------- 7--|------------ 9-------------- 9--|
http://classicalguitartablature.blogspot.com/
E| 5---- 5---- 5-- 5---- 3-- 1----| 5------------------------------|
B| 1---- 1---- 1-- 1---- 1---- 1--| 5-- 5------------------ 5-- 5--|
G| 2---- 2---- 2-- 2---- 2---- 2--| 2-- 2--------------------------|
D|--------------------------------|---- 2--------------------------|
A|------------ 3-------------- 3--|------------ 0-------------- 0--|
E| 1---- 1-------- 1-- 1----------| 0-- 0---------- 0---- 0--------|
http://classicalguitartablature.blogspot.com/
E| 0---- 0---- 0-- 0--------------|--------------------------------|
B| 2---- 2---- 2-- 2-- 3------ 2--| 0------------------------------|
G| 3---- 3---- 3-- 3-- 3------ 3--| 2-------------- 2-------- 2----|
D|---------------------- 2---- 2--| 0-------------------- 0--------|
A|--------------------------------| 2-- 2---------------------- 2--|
E| 0---- 0---- 0-- 0---- 0---- 0--|------------ 2-- 0-- 0----------|
http://classicalguitartablature.blogspot.com/
E|--------------------------------|---------------- 4-- 5 5-- 5----|
B| 5 5-- 5-- 2 5------------------|-------- 5-- 5------ 2 2-- 2-- 7|
G| 2 2-- 2-- 2 2------------------|-------- 2-- 2-- 2-- 2 2-- 2 6--|
D| 2 2-- 2-- 2--------------------|-------- 2-- 2---------------- 7|
A| 0---- 0-------- 0---- 0--------| 0---- 0-------- 0---- 0------ 5|
E|------------ 0-------------- 0--|------------ 0-------------- 0--|
http://classicalguitartablature.blogspot.com/
E|--------------------------------|--------------------------------|
B|---------------- 7--------------|--------------------------------|
G|---------- 6---------- 6--------|--------------------------------|
D|---- 7---------------------- 7--|--------------------------------|
A|---- 5---------- 5---- 5--------| 5-- 5---------- 5-- 5----------|
E|------------ 5-------------- 5--|------------ 5-------------- 5--|
http://classicalguitartablature.blogspot.com/
E|--------------------------------|---------------- 4-- 5 5-- 5----|
B| 5 5-- 5-- 2 5------------------|-------- 5-- 5------ 2 2-- 2-- 7|
G| 2 2-- 2-- 2 2------------------|-------- 2-- 2-- 2-- 2 2-- 2 6--|
D| 2 2-- 2-- 2--------------------|-------- 2-- 2---------------- 7|
A| 0---- 0-------- 0---- 0--------| 0---- 0-------- 0---- 0------ 5|
E|------------ 0-------------- 0--|------------ 0-------------- 0--|
http://classicalguitartablature.blogspot.com/
E|--------------------------------|---------------------------- 5--|
B|---------------- 7--------------|------------------------ 7---- 9|
G|---------- 6---------- 6--------|--------------------------------|
D|---- 7---------------------- 7--|--------------------------------|
A|---- 5---------- 5---- 5--------| 5-- 5---------- 5-- 5----------|
E|------------ 5-------------- 5--|------------ 5-------------- 5--|
http://classicalguitartablature.blogspot.com/
E| 7---- 7---- 7-- 7-- 9------ 7--| 5------------------------------|
B| 9---- 9---- 9-- 9-- 9------ 7--|--------------------------------|
G| 9---- 9---- 9-- 9-- 9---- 7 7--|--------------------------------|
D|--------------------------------|--------------------------------|
A| 7---- 7-------- 7---- 7--------| 5---- 5-------- 5---- 5--------|
E|------------ 7-------------- 7--|------------ 5-------------- 5--|
http://classicalguitartablature.blogspot.com/
E| 7-- 7------ 7-- 7-- 9----------|--------------------------------|
B| 9-- 9------ 9-- 9-- 9------12--|10----------------------10--10--|
G| 9-- 9------ 9-- 9-- 9----------| 9------------------------------|
D|----------------------------11--|11------------------------------|
A| 7---- 7-------- 7---- 7--------| 9-- 9---------- 9-- 9----------|
E|------------ 7-------------- 7--|------------ 9-------------- 9--|
http://classicalguitartablature.blogspot.com/
E| 5---- 5---- 5-- 5---- 3-- 1----| 5------------------------------|
B| 1---- 1---- 1-- 1---- 1---- 1--| 5-- 5------------------ 5-- 5--|
G| 2---- 2---- 2-- 2---- 2---- 2--| 2-- 2--------------------------|
D|--------------------------------|---- 2--------------------------|
A|------------ 3-------------- 3--|------------ 0-------------- 0--|
E| 1---- 1-------- 1-- 1----------| 0-- 0---------- 0---- 0--------|
http://classicalguitartablature.blogspot.com/
E| 0---- 0---- 0-- 0--------------|--------------------------------|
B| 2---- 2---- 2-- 2-- 3------ 2--| 0------------------------------|
G| 3---- 3---- 3-- 3-- 3------ 3--| 2-------------- 2-------- 2----|
D|---------------------- 2---- 2--| 0-------------------- 0--------|
A|--------------------------------| 2-- 2-------------------- 2----|
E| 0---- 0---- 0-- 0---- 0---- 0--|---------- 2---- 1---- 1--------|
http://classicalguitartablature.blogspot.com/
E|--------------------------------|---------------- 0--------------|
B| 0-------------- 2--------------| 3-------------- 0--------------|
G| 1-------------- 1--------------| 1-------------- 1--------------|
D| 2-------------- 2--------------| 2------------------------------|
A|------------ 2-------------- 2--|------------ 2-------------- 2--|
E| 0---- 0-------- 0---- 0--------| 0---- 0-------- 0---- 0--------|
http://classicalguitartablature.blogspot.com/
E| 2-------------- 4--------------|---------------- 7--------------|
B| 0-------------- 0--------------|10-------------- 7--------------|
G| 1-------------- 1--------------| 7-------------- 7--------------|
D|--------------------------------| 9------------------------------|
A|------------ 2-------------- 2--| 7---- 7-------- 7---- 7--------|
E| 0---- 0-------- 0---- 0--------|------------ 7-------------- 7--|
http://classicalguitartablature.blogspot.com/
E| 9 9-- 9-- 7 9------------------| 9---- 7---- 5-- 9---- 7---- 5--|
B| 5 5-- 5-- 5 5------------------| 7---- 7---- 7-- 7---- 7---- 7--|
G| 6 6-- 6---- 6------------------| 6---- 6---- 6-- 6---- 6---- 6--|
D|--------------------------------|--------------------------------|
A| 0---- 0-------- 0---- 0--------| 5---- 5-------- 5-- 5----------|
E|------------ 0-------------- 0--|------------ 5-------------- 5--|
http://classicalguitartablature.blogspot.com/
E| 9 9-- 9--12 9------------------| 9-------------- 9---- 9---- 9--|
B|1010--10----10------------------|10----12--10----------10--------|
G| 9 9-- 9-- 9 9------------------|11------------------------------|
D|--------------------------------|--------------------------------|
A| 0---- 0-------- 0---- 0--------| 5---- 5-------- 5-- 5----------|
E|------------ 0-------------- 0--|------------ 5-------------- 5--|
http://classicalguitartablature.blogspot.com/
E| 7---------------------- 5------| 2-------------- 1--------------|
B| 5------------------------------| 2-------------- 1--------------|
G| 6------------------------------| 2-------------- 2--------------|
D|--------------------------------|--------------------------------|
A| 4---- 4-------- 4-- 4----------|------------ 4-------------- 3--|
E|------------ 4-------------- 4--| 2---- 2-------- 1---- 1--------|
http://classicalguitartablature.blogspot.com/
E|--------------------------------|---------------- 0--------------|
B| 0-------------- 2--------------| 3-------------- 0--------------|
G| 1-------------- 1--------------| 1-------------- 1--------------|
D| 2-------------- 2--------------| 2------------------------------|
A|------------ 2-------------- 2--|------------ 2-------------- 2--|
E| 0---- 0-------- 0---- 0--------| 0---- 0-------- 0---- 0--------|
http://classicalguitartablature.blogspot.com/
E| 2-------------- 4--------------|---------------- 7--------------|
B| 0-------------- 0--------------|10-------------- 7--------------|
G| 1-------------- 1--------------| 7-------------- 7--------------|
D|--------------------------------| 9------------------------------|
A|------------ 2-------------- 2--| 7---- 7-------- 7---- 7--------|
E| 0---- 0-------- 0---- 0--------|------------ 7-------------- 7--|
http://classicalguitartablature.blogspot.com/
E| 9 9-- 9-- 7 9------------------| 9---- 7---- 5-- 9---- 7---- 5--|
B| 5 5-- 5-- 5 5------------------| 7---- 7---- 7-- 7---- 7---- 7--|
G| 6 6-- 6---- 6------------------| 6---- 6---- 6-- 6---- 6---- 6--|
D|--------------------------------|--------------------------------|
A| 0---- 0-------- 0---- 0--------| 5---- 5-------- 5-- 5----------|
E|------------ 0-------------- 0--|------------ 5-------------- 5--|
http://classicalguitartablature.blogspot.com/
E| 9 9-- 9--12 9------------------| 9-------------- 9---- 9---- 9--|
B|1010--10----10------------------|10----12--10----------10--------|
G| 9 9-- 9-- 9 9------------------|11------------------------------|
D|--------------------------------|--------------------------------|
A| 0---- 0-------- 0---- 0--------| 5---- 5-------- 5-- 5----------|
E|------------ 0-------------- 0--|------------ 5-------------- 5--|
http://classicalguitartablature.blogspot.com/
E| 7---------------------- 5------| 2-------------- 1--------------|
B| 5------------------------------| 2-------------- 1--------------|
G| 6------------------------------| 2-------------- 2--------------|
D|--------------------------------|--------------------------------|
A| 4---- 4-------- 4-- 4----------|------------ 4-------------- 3--|
E|------------ 4-------------- 4--| 2---- 2-------- 1---- 1--------|
http://classicalguitartablature.blogspot.com/
E|--------------------------------|---------------- 0--------------|
B| 0-------------- 2--------------| 3-------------- 0--------------|
G| 1-------------- 1--------------| 1-------------- 1--------------|
D| 2-------------- 2--------------| 2------------------------------|
A|------------ 2-------------- 2--|------------ 2-------------- 2--|
E| 0---- 0-------- 0---- 0--------| 0---- 0-------- 0---- 0--------|
http://classicalguitartablature.blogspot.com/
E| 2-------------- 4--------------|---------------- 7--------------|
B| 0-------------- 0--------------|10-------------- 7--------------|
G| 1-------------- 1--------------| 7-------------- 7--------------|
D|--------------------------------| 9------------------------------|
A|------------ 2-------------- 2--| 7---- 7-------- 7---- 7--------|
E| 0---- 0-------- 0---- 0--------|------------ 7-------------- 7--|
http://classicalguitartablature.blogspot.com/
E| 9 9-- 9-- 7 9------------------|--------------------------------|
B| 5-- 5 5-- 5 5------------------|--------------------------------|
G| 6 6-- 6-- 6 6------------------|--------------------------------|
D|--------------------------------|--------------------------------|
A| 0------------------------------|--------------------------------|
E|--------------------------------|--------------------------------|
http://classicalguitartablature.blogspot.com/

0 ความคิดเห็น:

แสดงความคิดเห็น