To celebrate the anniversary, I am giving you (finally...) : iPhone LickByNeck !!!!!!

River Deep Mountain High (BASIC)

Tina Turner's tune fingerstyle chord melody guitar BASIC arrangement played in the key of G.
River Deep Mountain High-Tina Turner-BASIC Arrangement played in the key of G
http://classicalguitartablature.blogspot.com/
E|--------------------------------|--------------------------------|
B|--------------------------------|--------------------------------|
G|--------------------------------|--------------------------------|
D|--------------------------------|--------------------------------|
A|--------10--10-- 8--10------ 8--|--------------------------------|
E|----10--------------------------|10--10-- 8--10-------- 8--------|
http://classicalguitartablature.blogspot.com/
E|--------------------------------|--------------------------------|
B|--------------------------------|--------------------------------|
G|--------------------------------|---------------- 0------ 2------|
D|--------------------------------|--------------------------------|
A|--------------------------------|--------------------------------|
E| 3-- 3-- 1---- 3-------- 1------| 3------------------------------|
http://classicalguitartablature.blogspot.com/
http://classicalguitartablature.blogspot.com/
E|-------------------- 0------ 1--|------------ 1-- 1---------- 0--|
B| 0------ 1------ 3-- 0------ 1--|------------ 1-- 1---------- 1--|
G|---------------------------- 0--|------------ 0-- 0---------- 0--|
D|--------------------------------|--------------------------------|
A|--------------------------------| 3-------------- 3--------------|
E|---------------------------- 3--|------------ 3-------------- 3--|
http://classicalguitartablature.blogspot.com/
E|--------------------------------|---------------- 1-- 1-------- 1|
B| 3------------ 1----------------|---------------- 1-- 1-------- 1|
G| 0------------ 0----------------|---------------- 0-- 0-------- 0|
D| 2------------ 2----------------|--------------------------------|
A| 3-- 3---------- 3--------------| 3-------------- 3--------------|
E|------------ 3-------------- 3--|------------ 3-------------- 3--|
http://classicalguitartablature.blogspot.com/
E|------------ 0------------------|--------------------------------|
B|------------ 1---- 3---- 1---- 0|--------------------------------|
G|------------ 0---- 0---- 0------|--------------------------------|
D|------------------------ 2---- 0|--------------------------------|
A| 3-- 3---------- 3--------------|--------------------------------|
E|------------ 3-------------- 3--| 3---------- 3-- 3---------- 3--|
http://classicalguitartablature.blogspot.com/
E|--------------------------------|--------------------------------|
B|-------- 0---------- 0----------| 0------------------------------|
G|-------- 0---------- 0----------| 0-------------- 0------ 2------|
D|-------- 0---------- 0----------| 0------------------------------|
A|--------------------------------|--------------------------------|
E| 3---------- 3-- 3---------- 3--| 3---------- 3-- 3---------- 3--|
http://classicalguitartablature.blogspot.com/
E|-------------------- 0------ 1--|------------ 1-- 1---------- 0--|
B| 0------ 1------ 3-- 0------ 1--|------------ 1-- 1---------- 1--|
G|---------------------------- 0--|------------ 0-- 0---------- 0--|
D|--------------------------------|--------------------------------|
A|--------------------------------| 3-------------- 3--------------|
E| 3---------- 3-- 3---------- 3--|------------ 3-------------- 3--|
http://classicalguitartablature.blogspot.com/
E|--------------------------------|---------------- 1-- 1-------- 1|
B| 3------------ 1----------------|---------------- 1-- 1-------- 1|
G| 0------------ 0----------------|---------------- 0-- 0-------- 0|
D| 2------------ 2----------------|--------------------------------|
A| 3-- 3---------- 3--------------| 3-------------- 3--------------|
E|------------ 3-------------- 3--|------------ 3-------------- 3--|
http://classicalguitartablature.blogspot.com/
E|------------ 0------------------|--------------------------------|
B|------------ 1---- 3---- 1---- 0|--------------------------------|
G|------------ 0---- 0---- 0------|--------------------------------|
D|------------------------ 2---- 0|--------------------------------|
A| 3-- 3---------- 3--------------|--------------------------------|
E|------------ 3-------------- 3 3|------------ 3-- 3-------- 3----|
http://classicalguitartablature.blogspot.com/
E|---------------- 7-- 7------ 7--|------------ 5---------- 7------|
B|---------------------------- 7--|------------ 7---------- 7------|
G|---------------------------- 7--|------------ 7---------- 7------|
D|--------------------------------|--------------------------------|
A|--------------------------------| 5-------------- 5--------------|
E| 3-------- 3---- 3-------- 3----|------------ 5-------------- 5--|
http://classicalguitartablature.blogspot.com/
E|---------------- 3-- 3------ 3--|--------------------------------|
B|---------------- 3-- 3------ 3--|--------------------------------|
G|---------------- 0-- 0------ 0--|--------------------------------|
D|--------------------------------|--------------------------------|
A| 5-- 5---------- 5--------------|--------------------------------|
E|------------ 5-------------- 5--| 3-------- 3---- 3---------- 3--|
http://classicalguitartablature.blogspot.com/
E|---------------- 7-- 7------ 7--|------------ 5---------- 7------|
B|---------------------------- 7--|------------ 7---------- 7------|
G|---------------------------- 7--|------------ 7---------- 7------|
D|--------------------------------|--------------------------------|
A|--------------------------------| 5-------------- 5--------------|
E| 3-- 3------ 3-- 3---------- 3--|------------ 5-------------- 5--|
http://classicalguitartablature.blogspot.com/
E|---------------- 3-- 3------ 3--|--------------------------------|
B|---------------- 3-- 3------ 3--|--------------------------------|
G|---------------- 0-- 0------ 0--|--------------------------------|
D|--------------------------------|--------------------------------|
A| 5-- 5---------- 5--------------|--------------------------------|
E|------------ 5-------------- 5--| 3-------- 3---- 3---------- 3--|
http://classicalguitartablature.blogspot.com/
E|---------------- 7-- 7------ 7--|------------ 5---------- 7------|
B|---------------------------- 7--|------------ 7---------- 7------|
G|---------------------------- 7--|------------ 7---------- 7------|
D|--------------------------------|--------------------------------|
A|--------------------------------| 5-------------- 5--------------|
E| 3-- 3------ 3-- 3---------- 3--|------------ 5-------------- 5--|
http://classicalguitartablature.blogspot.com/
E|---------------- 3-- 3------ 3--|--------------------------------|
B|---------------- 3-- 3------ 3--|--------------------------------|
G|---------------- 0-- 0------ 0--|--------------------------------|
D|--------------------------------|--------------------------------|
A| 5-- 5---------- 5--------------|--------------------------------|
E|------------ 5-------------- 5--| 3-------- 3---- 3---------- 3--|
http://classicalguitartablature.blogspot.com/
E|--------------------------------|--------------------------------|
B|-------- 0---------- 0----------|---------------- 1--------------|
G|-------- 0---------- 0----------| 2-------------------------- 2--|
D|-------- 0---------- 0----------|---- 3------ 3------ 3----------|
A|--------------------------------|--------------------------------|
E| 3-- 3------ 3-- 3---------- 3--| 1------ 1------ 1------ 1------|
http://classicalguitartablature.blogspot.com/
E| 1-------------------------- 1--|------ 1-------- 0--------------|
B| 1------------------ 1----------|-------- 1------ 1------ 3------|
G|------------ 2-- 2--------------|--------------------------------|
D|---- 3--------------------------|-- 3-------- 3------ 3------ 3--|
A|--------------------------------|--------------------------------|
E| 1------ 1------ 1------ 1------| 1------ 1------ 1------ 1------|
http://classicalguitartablature.blogspot.com/
E|--------------------------------|--------------------------------|
B| 1------------------------------| 0-------------- 3--------------|
G|-------- 3------ 2------ 0------| 0-------------- 0--------------|
D|---- 3------ 3------ 3----------|---- 0------ 0-------- 0-- 0----|
A|--------------------------------|--------------------------------|
E| 1------ 1------ 1------ 1------| 3------ 3------ 3------ 3------|
http://classicalguitartablature.blogspot.com/
E| 3-------------------------- 3--|-------- 3------ 2------ 0------|
B|---------------- 0-- 3------ 3--|---------------- 3------ 3------|
G|---------------- 0-- 0----------|------------ 0------ 0----------|
D|---- 0------ 0------------------|---- 0---------------------- 0--|
A|--------------------------------|--------------------------------|
E| 3------ 3------ 3------ 3------| 3---- 3-------- 3------ 3------|
http://classicalguitartablature.blogspot.com/
E|--------------------------------|--------------------------------|
B| 3------ 1------ 0--------------|---------------- 1--------------|
G| 0------ 0------ 0------ 2------| 2-------------------------- 2--|
D|------------ 0------ 0----------|---- 3------ 3------ 3----------|
A|--------------------------------|--------------------------------|
E| 3------ 3------ 3------ 3------| 1------ 1------ 1------ 1------|
http://classicalguitartablature.blogspot.com/
E| 1-------------------------- 1--|------ 1-------- 0--------------|
B| 1------------------ 1----------|-------- 1------ 1------ 3------|
G|------------ 2-- 2--------------|--------------------------------|
D|---- 3--------------------------|-- 3-------- 3------ 3------ 3--|
A|--------------------------------|--------------------------------|
E| 1------ 1------ 1------ 1------| 1------ 1------ 1------ 1------|
http://classicalguitartablature.blogspot.com/
E|--------------------------------|--------------------------------|
B| 1-------------------------- 0--|---- 0---------- 3---- 3--------|
G|-------- 3------ 2------ 0------|---- 0---------- 0------ 0------|
D|---- 3------ 3------ 3----------|------------ 0------------------|
A|--------------------------------|--------------------------------|
E| 1------ 1------ 1------ 1------| 3------ 3------ 3------ 3------|
http://classicalguitartablature.blogspot.com/
E| 3-------- 3-------- 3----------|------------------------------ 3|
B| 3-------- 3-------- 3----------| 0------ 0------ 3------ 3---- 3|
G|---------- 0-------- 0----------|-------- 0------ 0------ 0------|
D|---------------------------- 0--| 0-------------- 0------ 0------|
A|--------------------------------|--------------------------------|
E| 3------ 3------ 3------ 3------| 3------ 3------ 3------ 3------|
http://classicalguitartablature.blogspot.com/
E|------------ 3------------------|--------------------------------|
B|------------ 3------------------|--------------------------------|
G| 0---------- 0------------------|--------------------------------|
D|--------------------------------|--------------------------------|
A|--------------------------------|------------------------ 8-- 9--|
E| 3---------- 3------------------|--------------------10----------|
http://classicalguitartablature.blogspot.com/
E|--------------------------------|--------------------------------|
B|--------------------------------|--------------------------------|
G|--------------------------------|--------------------------------|
D|--------------------------------|-------- 8----------------------|
A|10------10-------------- 8-- 9--|10-- 8------10---------- 8-- 9--|
E|--------------------10----------|--------------------10----------|
http://classicalguitartablature.blogspot.com/
E|--------------------------------|--------------------------------|
B|--------------------------------|--------------------------------|
G|--------------------------------|--------------------------------|
D|--------------------------------|-------- 8----------------------|
A|10------10-------------- 8-- 9--|10-- 8------10------ 5----------|
E|--------------------10----------|------------------------ 1-- 2--|
http://classicalguitartablature.blogspot.com/
E|-------- 1------ 1------ 1------| 1-------------------- 0------ 1|
B|-------- 0------ 0------ 0------| 0------ 3------ 3------------ 0|
G|-------- 0-------------- 0------| 0------------------------------|
D|--------------------------------|--------------------------------|
A|---------------------- 5--------|-------- 1---------- 5----------|
E| 3------ 3---------------- 1-- 2| 3-- 1------ 3---------- 1-- 2--|
http://classicalguitartablature.blogspot.com/
E|-------- 1------ 1------ 0------|-- 1 0--------------------------|
B|-------- 0------ 0--------------|------ 3------------------------|
G|--------------------------------|--------------------------------|
D|--------------------------------|--------------------------------|
A|---------------------- 5--------|-------- 1---------- 5----------|
E| 3------ 3---------------- 1-- 2| 3-- 1------ 3---------- 1-- 2--|
http://classicalguitartablature.blogspot.com/
E|-------- 1------ 1------ 1-- 1--|---- 1--------------------------|
B|-------- 0------ 0------ 0-- 0--|---- 0---------- 3------ 1------|
G|-------- 0------ 0------ 0-- 0--|---- 0--------------------------|
D|--------------------------------|--------------------------------|
A|---------------------- 5--------|-------- 1---------- 5----------|
E| 3------ 3---------------- 1-- 2| 3-- 1------ 3---------- 1-- 2--|
http://classicalguitartablature.blogspot.com/
E| 1------ 1------ 1------ 1-- 0--|--------------------------------|
B| 0------ 0------ 0------ 0------|---- 3--------------------------|
G| 0------ 0------ 0------ 0------|--------------------------------|
D|--------------------------------|--------------------------------|
A|---------------------- 5--------|-------- 1----------------------|
E| 3------ 3---------------- 1-- 2| 3-- 1------ 3------ 3-- 6-- 7--|
http://classicalguitartablature.blogspot.com/
E|-------- 6------ 6------ 6------| 5------------------------------|
B|--------------------------------|-------- 8-- 8------ 5----------|
G|--------------------------------|--------------------------------|
D|--------------------------------|--------------------------------|
A|--------------------------------|-------- 6----------------------|
E| 8------ 8---------- 3-- 6-- 7--| 8-- 6------ 8------ 3-- 6-- 7--|
http://classicalguitartablature.blogspot.com/
E| 6------ 6------ 6------ 6---- 5|------------ 5------------------|
B|--------------------------------|---- 8--------------------------|
G|--------------------------------|--------------------------------|
D|--------------------------------|--------------------------------|
A|--------------------------------|-------- 6---------- 5----------|
E| 8------ 8---------- 3-- 6-- 7--| 8-- 6------ 8---------- 1-- 2--|
http://classicalguitartablature.blogspot.com/
E|-------- 1------ 1------ 1------| 0-------------------- 0---- 1--|
B|-------- 0------ 0------ 0------|---- 3-------- 3---- 0------ 0--|
G|-------- 0------ 0------ 0------|-------------- 0----------------|
D|--------------------------------|--------------------------------|
A|-------------------- 5----------|-------- 1---------- 5----------|
E| 3------ 3---------------- 1 2--| 3-- 1------ 3---------- 1-- 2--|
http://classicalguitartablature.blogspot.com/
E|---------------- 1---- 1------ 0|------------ 0------------------|
B|---------------- 0---- 0--------|---- 3--------------------------|
G|---------------- 0---- 0--------|--------------------------------|
D|--------------------------------|--------------------------------|
A|-------------------- 5----------|-------- 1---------- 5----------|
E| 3------ 3---------------- 1 2--| 3-- 1------ 3---------- 1-- 2--|
http://classicalguitartablature.blogspot.com/
E|--------------------------------|--------------------------------|
B|--------------------------------|--------------------------------|
G| 0---------- 0------------------| 0------ 3-- 0------------------|
D| 0---------- 0---- 0---- 3-- 4--|---- 3------ 0------ 0 3---- 4--|
A|--------------------------------|--------------------------------|
E| 3---------- 3------------------| 3---------- 3------------------|
http://classicalguitartablature.blogspot.com/
E|--------------------------------|--------------------------------|
B|--------------------------------|--------------------------------|
G| 0---------- 0------------------| 0------ 3-- 0------------------|
D| 0---------- 0---- 0---- 3-- 4--|---- 3------ 0------ 0 3---- 4--|
A|--------------------------------|--------------------------------|
E| 3---------- 3------------------| 3---------- 3------------------|
http://classicalguitartablature.blogspot.com/
E|--------------------------------|--------------------------------|
B|--------------------------------|--------------------------------|
G| 0---------- 0------------------| 0------ 3-- 0------------------|
D| 0---------- 0---- 0---- 3-- 4--|---- 3------ 0------ 0 3---- 4--|
A|--------------------------------|--------------------------------|
E| 3---------- 3------------------| 3---------- 3------------------|
http://classicalguitartablature.blogspot.com/
E|--------------------------------|--------------------------------|
B|--------------------------------|--------------------------------|
G| 0---------- 0------------------| 0------ 3-- 0------------------|
D| 0---------- 0---- 0---- 3-- 4--|---- 3------ 0------ 0 3---- 4--|
A|--------------------------------|--------------------------------|
E| 3---------- 3------------------| 3---------- 3------------------|
http://classicalguitartablature.blogspot.com/
E|--------------------------------| 1-------------------------- 1--|
B|---------------- 1--------------| 1------------------ 1----------|
G| 2-------------------------- 2--|------------ 2-- 2--------------|
D|---- 3------ 3------ 3----------|---- 3--------------------------|
A|--------------------------------|--------------------------------|
E| 1------ 1------ 1------ 1------| 1------ 1------ 1------ 1------|
http://classicalguitartablature.blogspot.com/
E|------ 1-------- 0--------------|--------------------------------|
B|-------- 1------ 1------ 3------| 1------------------------------|
G|--------------------------------|-------- 3------ 2------ 0------|
D|-- 3-------- 3------ 3------ 3--|---- 3------ 3------ 3----------|
A|--------------------------------|--------------------------------|
E| 1------ 1------ 1------ 1------| 1------ 1------ 1------ 1------|
http://classicalguitartablature.blogspot.com/
E|--------------------------------| 3-------------------------- 3--|
B| 0-------------- 3--------------|---------------- 0-- 3------ 3--|
G| 0-------------- 0--------------|---------------- 0-- 0----------|
D|---- 0------ 0-------- 0-- 0----|---- 0------ 0------------------|
A|--------------------------------|--------------------------------|
E| 3------ 3------ 3------ 3------| 3------ 3------ 3------ 3------|
http://classicalguitartablature.blogspot.com/
E|-------- 3------ 2------ 0------|--------------------------------|
B|---------------- 3------ 3------| 3------ 1------ 0--------------|
G|------------ 0------ 0----------| 0------ 0------ 0------ 2------|
D|---- 0---------------------- 0--|------------ 0------ 0----------|
A|--------------------------------|--------------------------------|
E| 3---- 3-------- 3------ 3------| 3------ 3------ 3------ 3------|
http://classicalguitartablature.blogspot.com/
E|--------------------------------| 1-------------------------- 1--|
B|---------------- 1--------------| 1------------------ 1----------|
G| 2-------------------------- 2--|------------ 2-- 2--------------|
D|---- 3------ 3------ 3----------|---- 3--------------------------|
A|--------------------------------|--------------------------------|
E| 1------ 1------ 1------ 1------| 1------ 1------ 1------ 1------|
http://classicalguitartablature.blogspot.com/
E|------ 1-------- 0--------------|--------------------------------|
B|-------- 1------ 1------ 3------| 1-------------------------- 0--|
G|--------------------------------|-------- 3------ 2------ 0------|
D|-- 3-------- 3------ 3------ 3--|---- 3------ 3------ 3----------|
A|--------------------------------|--------------------------------|
E| 1------ 1------ 1------ 1------| 1------ 1------ 1------ 1------|
http://classicalguitartablature.blogspot.com/
E|--------------------------------| 3-------- 3-------- 3----------|
B|---- 0---------- 3---- 3--------| 3-------- 3-------- 3----------|
G|---- 0---------- 0------ 0------|---------- 0-------- 0----------|
D|------------ 0------------------|---------------------------- 0--|
A|--------------------------------|--------------------------------|
E| 3------ 3------ 3------ 3------| 3------ 3------ 3------ 3------|
http://classicalguitartablature.blogspot.com/
E|------------------------------ 3|------------ 3------------------|
B| 0------ 0------ 3------ 3---- 3|------------ 3------------------|
G|-------- 0------ 0------ 0------| 0---------- 0------------------|
D| 0-------------- 0------ 0------|--------------------------------|
A|--------------------------------|--------------------------------|
E| 3------ 3------ 3------ 3------| 3---------- 3------------------|
http://classicalguitartablature.blogspot.com/

0 ความคิดเห็น:

แสดงความคิดเห็น