To celebrate the anniversary, I am giving you (finally...) : iPhone LickByNeck !!!!!!

Rocketeer (BASIC)

Far East Movement's tune fingerstyle chord melody guitar BASIC arrangement played in the key of G.
Rocketeer-Far East Movement-BASIC Arrangement played in the key of G
http://classicalguitartablature.blogspot.com/
E|---------------------------- 7--|--------------------------------|
B|-------------------- 3-- 5-- 5--|------------------ 3-- 5---- 5--|
G|---------------------------- 4--|---- 4------ 4---- 4-- 4---- 5--|
D|--------------------------------|--------------------------------|
A|--------------------------------| 3---- 3------ 3-------- 3------|
E|--------------------------------|--------------------------------|
http://classicalguitartablature.blogspot.com/
E|---------------------------- 5--|---- 3------ 2-------------- 5--|
B|---------------------- 5---- 3--|---- 3------ 3------ 5------ 0--|
G|---- 5------ 5---- 7-------- 2--|---- 2------ 2------ 2------ 0--|
D|---- 5------ 5---- 5------------|-------------------- 4----------|
A|--------------------------------| 2------ 2------ 2------ 2------|
E| 5------ 5---- 5-------- 5------|--------------------------------|
http://classicalguitartablature.blogspot.com/
http://classicalguitartablature.blogspot.com/
E|---- 3------ 2---------- 0-- 7--|---------------------------- 5--|
B|---- 0------ 0------ 3------ 5--|------------ 5---- 3---- 5-- 5--|
G|---- 0------ 0-------------- 4--|---- 4------ 4---- 4---- 4-- 5--|
D|--------------------------------|--------------------------------|
A|--------------------------------| 3------ 3------ 3------ 3------|
E| 0------ 0------ 0------ 0------|--------------------------------|
http://classicalguitartablature.blogspot.com/
E|---------------------------- 7--|---- 5------ 3------ 2 3---- 7--|
B|---------------------------- 0--|---- 0------ 0-------------- 7--|
G|---- 5------ 5------ 7------ 0--|---- 0------ 0------------------|
D|---- 5------ 5------------------|--------------------------------|
A|--------------------------------|--------------------------------|
E| 5------ 5------ 5------ 5------| 3------ 3------ 3------ 3------|
http://classicalguitartablature.blogspot.com/
E|--------------------------------|--------------------10------ 7--|
B|----10------ 8------ 7----------|------ 7---- 8-------------- 5--|
G|---- 8------ 8------ 8-------- 9|------ 9---- 9-------------- 5--|
D|---- 7------ 7---- 7------------|---- 9 9---- 9------------------|
A|--------------------------------|--------------------------------|
E| 7------ 7------ 7------ 7------| 8------ 8------ 8------ 8------|
http://classicalguitartablature.blogspot.com/
E|------------ 5---------------- 2|---- 2 2---- 2------ 2---- 2----|
B|------------ 5---------------- 3|---- 3 3-- 5 3------ 3---- 3----|
G|------------ 5---------------- 2|---- 2 2 2-- 2------ 2------ 2--|
D|---- 5-------------- 5---- 5----|-------- 4----------------------|
A|--------------------------------| 2---- 2------ 2-------- 2------|
E| 5------ 5------ 5------ 5------|--------------------------------|
http://classicalguitartablature.blogspot.com/
E| 2-- 2-- 2 0 2------ 2---- 0----|--------------------10------ 7--|
B| 0-- 0 0-- 0 3------ 3---- 3----|------ 7---- 8-------------- 5--|
G| 0-- 0-- 0 0 2------ 2---- 2-- 9|------ 9---- 9-------------- 5--|
D|--------------------------------|---- 9 9---- 9------------------|
A|---------------- 5------ 5------|--------------------------------|
E| 0------ 0----------------------| 8------ 8------ 8------ 8------|
http://classicalguitartablature.blogspot.com/
E|------------ 5------------------|--------------------------------|
B|------------ 5---------------- 0|-- 0-- 0-- 0-------- 0---- 0----|
G|------------ 5---------------- 0|-- 0---- 2-------------------- 2|
D|---- 5-------------- 5---- 5-- 0|---- 0--------------------------|
A|--------------------------------|--------------------------------|
E| 5------ 5------ 5------ 5------| 3---- 3------ 3-------- 3------|
http://classicalguitartablature.blogspot.com/
E|--------------------------------|--------------------------------|
B| 0-- 0-- 0-- 0------ 0---- 0----| 0 0-- 0---- 0------ 0----------|
G|---- 2---- 2---------------- 2--| 2-- 2------ 2-------------- 2 0|
D| 1-- 1--------------------------| 2------ 2-- 2------------------|
A| 2------ 2---- 2-------- 2------| 3------ 3------ 3------ 3------|
E|--------------------------------|--------------------------------|
http://classicalguitartablature.blogspot.com/
E|--------------------------------|--------------------------------|
B|--------------------------------|--------------------------------|
G| 2-- 2-- 2 0 2------ 2---- 2 0--| 2 2-- 2-- 0 2 2---- 2-- 2 0 2--|
D| 2-- 2-- 2 2 2------ 2----------| 0------------------------------|
A| 0------ 0------ 0------ 0------| 2------ 2------ 2------ 2------|
E|--------------------------------|--------------------------------|
http://classicalguitartablature.blogspot.com/
E|--------------------------------|--------------------------------|
B|---------------------------- 0--| 0-- 0 0 0 0--------------------|
G| 2 2 2 2-- 0 4 2-------------- 2| 2---------- 2------ 2---- 2 0 2|
D|--------------------------------| 2------------------------------|
A|---------------- 5------ 5------| 3------ 3------ 3------ 3------|
E| 0------ 0----------------------|--------------------------------|
http://classicalguitartablature.blogspot.com/
E|--------------------------------|--------------------------------|
B|---- 0--------------------------|-------------------------- 0----|
G|-- 2-- 2 0---- 2 0-------- 2 0--| 2-- 2 2-- 0 2------ 2------ 2--|
D| 2---------- 2---- 2------------| 0-- 0 0-- 0 0------ 0-------- 2|
A| 0------ 0---- 0-------- 0------|--------------------------------|
E|--------------------------------| 3------ 3------ 3------ 3------|
http://classicalguitartablature.blogspot.com/
E|------------------------ 0-- 7--|--------------------------------|
B| 0-- 0 0---- 0------ 3------ 5--|------------------ 3-- 5---- 5--|
G|---- 2---- 2---------------- 4--|---- 4------ 4---- 4-- 4---- 5--|
D|--------------------------------|--------------------------------|
A| 2------ 2------ 2------ 2------| 3---- 3------ 3-------- 3------|
E|--------------------------------|--------------------------------|
http://classicalguitartablature.blogspot.com/
E|---------------------------- 5--|---- 3------ 2-------------- 5--|
B|---------------------- 5---- 3--|---- 3------ 3------ 5------ 0--|
G|---- 5------ 5---- 7-------- 2--|---- 2------ 2------ 2------ 0--|
D|---- 5------ 5---- 5------------|-------------------- 4----------|
A|--------------------------------| 2------ 2------ 2------ 2------|
E| 5------ 5---- 5-------- 5------|--------------------------------|
http://classicalguitartablature.blogspot.com/
E|---- 3------ 2---------- 0-- 7--|---------------------------- 5--|
B|---- 0------ 0------ 3------ 5--|------------ 5---- 3---- 5-- 5--|
G|---- 0------ 0-------------- 4--|---- 4------ 4---- 4---- 4-- 5--|
D|--------------------------------|--------------------------------|
A|--------------------------------| 3------ 3------ 3------ 3------|
E| 0------ 0------ 0------ 0------|--------------------------------|
http://classicalguitartablature.blogspot.com/
E|---------------------------- 7--|---- 5------ 3------ 2 3---- 7--|
B|---------------------------- 0--|---- 0------ 0-------------- 7--|
G|---- 5------ 5------ 7------ 0--|---- 0------ 0------------------|
D|---- 5------ 5------------------|--------------------------------|
A|--------------------------------|--------------------------------|
E| 5------ 5------ 5------ 5------| 3------ 3------ 3------ 3------|
http://classicalguitartablature.blogspot.com/
E|--------------------------------|--------------------10------ 7--|
B|----10------ 8------ 7----------|------ 7---- 8-------------- 5--|
G|---- 8------ 8------ 8-------- 9|------ 9---- 9-------------- 5--|
D|---- 7------ 7---- 7------------|---- 9 9---- 9------------------|
A|--------------------------------|--------------------------------|
E| 7------ 7------ 7------ 7------| 8------ 8------ 8------ 8------|
http://classicalguitartablature.blogspot.com/
E|------------ 5---------------- 2|---- 2 2---- 2------ 2---- 2----|
B|------------ 5---------------- 3|---- 3 3-- 5 3------ 3---- 3----|
G|------------ 5---------------- 2|---- 2 2 2-- 2------ 2------ 2--|
D|---- 5-------------- 5---- 5----|-------- 4----------------------|
A|--------------------------------| 2---- 2------ 2-------- 2------|
E| 5------ 5------ 5------ 5------|--------------------------------|
http://classicalguitartablature.blogspot.com/
E| 2-- 2-- 2 0 2------ 2---- 0----|--------------------10------ 7--|
B| 0-- 0 0-- 0 3------ 3---- 3----|------ 7---- 8-------------- 5--|
G| 0-- 0-- 0 0 2------ 2---- 2-- 9|------ 9---- 9-------------- 5--|
D|--------------------------------|---- 9 9---- 9------------------|
A|---------------- 5------ 5------|--------------------------------|
E| 0------ 0----------------------| 8------ 8------ 8------ 8------|
http://classicalguitartablature.blogspot.com/
E|------------ 5------------------|--------------------------------|
B|------------ 5---------------- 0|-- 0-- 0-- 0-------- 0---- 0----|
G|------------ 5---------------- 0|-- 0---- 2-------------------- 2|
D|---- 5-------------- 5---- 5-- 0|---- 0--------------------------|
A|--------------------------------|--------------------------------|
E| 5------ 5------ 5------ 5------| 3---- 3------ 3-------- 3------|
http://classicalguitartablature.blogspot.com/
E|--------------------------------|--------------------------------|
B| 0-- 0-- 0-- 0------ 0---- 0----| 0-- 0-- 0-- 0------------------|
G|---- 2---- 2---------------- 2--| 0-------- 2-------- 2----------|
D| 1-- 1--------------------------| 2------------------------------|
A| 2------ 2---- 2-------- 2---- 3|--------------------------------|
E|--------------------------------|--------------------------------|
http://classicalguitartablature.blogspot.com/

0 ความคิดเห็น:

แสดงความคิดเห็น