To celebrate the anniversary, I am giving you (finally...) : iPhone LickByNeck !!!!!!

Smooth (BASIC)

Santana's tune fingerstyle chord melody guitar BASIC arrangement played in the key of Am.
Smooth-Santana-BASIC Arrangement played in the key of Am
http://classicalguitartablature.blogspot.com/
E|------------------------------ 5|--------------------------------|
B|-------------------- 5-- 8-- 5--| 5-- 5-------------- 1------ 0--|
G|--------------------------------| 5-- 5-------------- 2------ 1--|
D|--------------------------------|---- 7-------------- 3------ 0--|
A|--------------------------------| 0---------- 0------------------|
E|--------------------------------|---------------- 1---------- 0--|
http://classicalguitartablature.blogspot.com/
E|---------- 5 7 8---- 7---- 5 7--| 8-- 5--------------------------|
B|-------- 0----------------------| 5-- 5-------------- 1------ 0--|
G|--------------------------------| 5-- 5-------------- 2------ 1--|
D|-- 0----------------------------|-------------------- 3------ 0--|
A|--------------------------------| 0---------- 0------------------|
E|---------------- 0--------------|---------------- 1---------- 0--|
http://classicalguitartablature.blogspot.com/
http://classicalguitartablature.blogspot.com/
E|------------------ 0---------- 0|--------------------------------|
B|------------------ 0------------| 1------------------ 1------ 0--|
G|--------------------------------| 2------------------ 2------ 1--|
D|--------------------------------|-------------------- 3------ 0--|
A|--------------------------------| 0---------- 0------------------|
E|---- 0------ 0-------------- 0--|---------------- 1---------- 0--|
http://classicalguitartablature.blogspot.com/
E|--------------------------------|--------------------------------|
B|-- 1-- 0---------------- 0------|-------------------- 1------ 0--|
G|---------- 2-- 1---- 2 1---- 2--|---- 2-------------- 0------ 1--|
D|--------------------------------|---- 2-------------- 3------ 0--|
A|--------------------------------| 0---------- 0------------------|
E|-------------- 0----------------|---------------- 1---------- 0--|
http://classicalguitartablature.blogspot.com/
E|------------------ 0------------| 0------------------------------|
B|---------------------- 3---- 1--|-------- 1---------- 1------ 0--|
G|--------------------------------| 2-- 2-------------- 2------ 1--|
D|--------------------------------|-------------------- 3------ 0--|
A|--------------------------------| 0---------- 0------------------|
E|---- 0------ 0-- 0--------------|---------------- 1---------- 0--|
http://classicalguitartablature.blogspot.com/
E|-- 0------ 0-- 0-- 0------------| 0------------------------------|
B|---------- 0-- 0-- 0---- 3-- 1--|-------- 1---------- 1------ 0--|
G|---------- 1-- 1---- 1----------| 2-- 2-------------- 2------ 1--|
D|--------------------------------|-------------------- 3------ 0--|
A|--------------------------------| 0---------- 0------------------|
E|---------- 0--------------------|---------------- 1---------- 0--|
http://classicalguitartablature.blogspot.com/
E|-- 0------ 0-- 0-- 0------------|--------------------------------|
B|---------- 0-- 0-- 0---- 3-- 1--| 5-- 5------ 5------ 5------ 5--|
G|---------- 1-- 1---- 1----------| 5-- 5------ 5------ 5------ 2--|
D|--------------------------------| 3-- 3------ 3------ 3------ 3--|
A|--------------------------------| 5---------- 3-------------- 2--|
E|---------- 0--------------------|--------------------------------|
http://classicalguitartablature.blogspot.com/
E|---------------------------- 3--|-------- 0----------------------|
B|---- 5---------------------- 1--|---- 3-- 1---------- 1------ 0--|
G|---- 2---------------------- 0--|---- 0-------------- 2------ 1--|
D|---- 3------ 2------ 2----------|-------------------- 3------ 0--|
A|--------------------------------| 0---------- 0------------------|
E|------------ 0------------------|---------------- 1---------- 0--|
http://classicalguitartablature.blogspot.com/
E|------------------ 0---------- 0|--------------------------------|
B|---- 0-------- 0------ 3-- 1----|------ 1---------- 1------ 0----|
G|---- 1-------- 1-------------- 2|-- 2---------------- 2---- 1----|
D|---- 0-------- 0----------------|------------------ 3------ 0----|
A|--------------------------------| 0---------- 0------------------|
E|------------ 0 0----------------|---------------- 1-------- 0----|
http://classicalguitartablature.blogspot.com/
E|-- 0------ 0-- 0-- 0------------| 0------------------------------|
B|---------- 0-- 0-- 0-- 3-- 1----|-------- 1---------- 1------ 0--|
G|---------- 1-- 1-- 1------------| 2-- 2-------------- 2------ 1--|
D|--------------------------------|-------------------- 3------ 0--|
A|--------------------------------| 0---------- 0------------------|
E|---------- 0--------------------|---------------- 1---------- 0--|
http://classicalguitartablature.blogspot.com/
E|-- 0------ 0-- 0-- 0------------|--------------------------------|
B|---------- 0-- 0-- 0---- 3-- 1--| 5-- 5------ 5------ 5------ 5--|
G|---------- 1-- 1---- 1----------| 5-- 5------ 5------ 5------ 2--|
D|--------------------------------| 3-- 3------ 3------ 3------ 3--|
A|--------------------------------| 5---------- 3-------------- 2--|
E|---------- 0--------------------|--------------------------------|
http://classicalguitartablature.blogspot.com/
E|---------------------------- 3--|-------- 0----------------------|
B|---- 5---------------------- 1--|---- 3-- 1---------- 1------ 0--|
G|---- 2---------------------- 0--|---- 0-- 0---------- 2------ 1--|
D|---- 3------ 2------ 2----------|---- 2-------------- 3------ 0--|
A|--------------------------------| 0---------- 0------------------|
E|------------ 0------------------|---------------- 1---------- 0--|
http://classicalguitartablature.blogspot.com/
E|------------------ 0-- 3---- 5--|-------- 8------ 5--------------|
B|---- 0---------- 0---------- 5--|-------- 5------ 5---------- 8--|
G|---- 1---------- 1---------- 5--|---- 5---------------- 5--------|
D|---- 0---------- 0--------------|-------------------- 7----------|
A|--------------------------------| 0---------- 0-- 8--------------|
E|------------ 0------------------|--------------------------------|
http://classicalguitartablature.blogspot.com/
E| 5------------------ 5-- 5-- 5--|-------- 8 5-------------- 8----|
B| 8------ 8---------- 8-- 8-- 5--|-------- 5 5--------------------|
G| 7------ 7-- 7------ 7-- 7-- 5--|---- 5---------------- 5--------|
D|---- 6------ 6------------------|-------------------- 7----------|
A|--------------------------------| 0---------- 0-- 8--------------|
E| 0---------- 0------------------|--------------------------------|
http://classicalguitartablature.blogspot.com/
E|10------ 8-- 7-------------- 5--|------ 8-- 5--------------------|
B| 9------ 9-- 9------10--10-- 5--|-------- 5 5---------------- 8--|
G|---- 7------ 7-- 7------ 7-- 5--|------------------------ 5------|
D|--------------------------------|---- 7-------------- 7----------|
A|--------------------------------| 0---------- 0 8----------------|
E| 0---------- 0------------------|--------------------------------|
http://classicalguitartablature.blogspot.com/
E| 5-- 3------ 0------------------|--------------------------------|
B| 3-- 3------ 0------ 3---- 1----| 5------ 3----------------------|
G| 4-- 4------ 0------ 0---- 0----| 5-- 5-------------- 5----------|
D|--------------------------------| 3-- 3-------------- 3----------|
A|--------------------------------| 5---------- 5-- 3---------- 3--|
E| 0---------- 0------------------|--------------------------------|
http://classicalguitartablature.blogspot.com/
E|---------------------------- 3--|-------- 0----------------------|
B|---------------------------- 3--|---- 3-- 0-------- 3------ 3----|
G| 2-- 2---------------------- 1--|---- 1-------------- 1------ 1--|
D| 3-- 3---------- 2-- 2----------|---- 0-------------- 0---- 0----|
A| 2---------- 2------------------|--------------------------------|
E|---------------- 1--------------| 0---------- 0-- 0---------- 0--|
http://classicalguitartablature.blogspot.com/
E|------------------ 0-- 3-- 5-- 8|-- 8-- 5-- 8-------- 5------ 5--|
B|-- 3-- 3------ 3-------------- 5|-- 5-- 5------------ 5----------|
G|-- 1-- 1------ 1-------------- 5|-- 5------------------------ 5--|
D|-- 0-- 0------ 0----------------|--------------------------------|
A|------------------------------ 0|------------ 0-- 8---------- 8--|
E|---------- 0-- 0----------------|--------------------------------|
http://classicalguitartablature.blogspot.com/
E| 8-- 8-- 5--10------------------| 8-- 5-- 8-- 5-- 8-- 5-- 8-- 5--|
B| 8-- 8-- 8--10---------- 8--10--| 5-- 5-- 5-- 5-- 5-- 5------ 5--|
G| 7-- 7------ 9------ 9----------| 5-- 5---------- 5---------- 5--|
D|--------------------------------|--------------------------------|
A|--------------------------------| 0---------- 0-- 8---------- 8--|
E| 0---------- 0---------- 0------|--------------------------------|
http://classicalguitartablature.blogspot.com/
E| 8--10-- 8--12------------------|12--15--12------12--------------|
B| 9-- 9-- 9--12------15------15--|13--13--13--15--10--1010----10--|
G| 7-- 7------13------13------13--|14--14--------------------------|
D|--------------------12------12--|--------------------------------|
A|--------------------------------| 0---------- 0-- 8--------------|
E| 0---------- 0-------------- 0--|--------------------------------|
http://classicalguitartablature.blogspot.com/
E| 8--10-- 8--12------------------| 8-- 8-- 5-- 8---- 8-- 8----10--|
B|---- 9------12------15------15--| 6-- 6------ 6---- 6-- 6---- 9--|
G| 7-- 7--------------13------13--| 7-- 7-- 7-- 7---- 7-- 7---- 7--|
D|--------------------12------12--|--------------------------------|
A|--------------------------------| 5------------------------------|
E| 0---------- 0-------------- 0--|---------------------------- 0--|
http://classicalguitartablature.blogspot.com/
E|-- 8-- 8-- 8-- 8------------ 5--|--------------------------------|
B|---------------------- 8---- 5--|---- 5-------------- 1------ 8--|
G|------------------ 9-------- 5--|---- 5-------------- 2------ 7--|
D|--------------------------------|---- 7-------------- 3------ 6--|
A|--------------------------------| 0---------- 0------------------|
E|--------------------------------|---------------- 1---------- 0--|
http://classicalguitartablature.blogspot.com/
E|---- 8-- 8-- 8-- 8---------- 5--|--------------------------------|
B|---- 8-- 8-- 8------ 5-- 8-- 5--|---- 5-------------- 1------ 8--|
G|---- 7-- 7-- 7-------------- 5--|---- 5-------------- 2------ 7--|
D|--------------------------------|---- 7-------------- 3------ 6--|
A|--------------------------------| 0---------- 0------------------|
E|------------ 0------------------|---------------- 1---------- 0--|
http://classicalguitartablature.blogspot.com/
E|---- 8-- 8 8---- 8---------- 5--|--------------------------------|
B|---- 8-- 8 8---- 8-- 5-- 8-- 5--|---- 5-------------- 1------ 0--|
G|---- 7-- 7------ 7-- 7-- 7-- 5--|---- 5-------------- 2------ 1--|
D|-------------------- 6-- 6------|---- 7-------------- 3------ 0--|
A|--------------------------------| 0---------- 0------------------|
E|------------ 0------------------|---------------- 1---------- 0--|
http://classicalguitartablature.blogspot.com/
E|--------------------------------| 8-- 8-- 5-- 8---- 8-- 8----10--|
B|---- 0------ 0------ 0----------| 6-- 6------ 6---- 6-- 6---- 9--|
G|---- 1------ 1------ 1----------| 7-- 7-- 7-- 7---- 7-- 7---- 7--|
D|---- 0------ 0------ 0----------|--------------------------------|
A|--------------------------------| 5------------------------------|
E|------------ 0-------------- 0--|---------------------------- 0--|
http://classicalguitartablature.blogspot.com/
E|-- 8-- 8-- 8-- 8------------ 5--|------ 5---------- 5---------- 5|
B|---------------------- 8---- 5--|------ 5---------- 7---------- 7|
G|------------------ 9-------- 5--|------ 5---------- 5---------- 5|
D|--------------------------------|--------------------------------|
A|--------------------------------|--------------------------------|
E|---------------------------- 5--|------ 5---------- 5---------- 5|
http://classicalguitartablature.blogspot.com/
E|--------------------------------|--------------------------------|
B|--------------------------------|--------------------------------|
G|--------------------------------|--------------------------------|
D|--------------------------------|--------------------------------|
A|--------------------------------|--------------------------------|
E|--------------------------------|--------------------------------|
http://classicalguitartablature.blogspot.com/

0 ความคิดเห็น:

แสดงความคิดเห็น