To celebrate the anniversary, I am giving you (finally...) : iPhone LickByNeck !!!!!!

The Magnificent Seven (BASIC)

John Barry's tune fingerstyle chord melody guitar BASIC arrangement played in the key of G.
The Magnificent Seven-John Barry-BASIC Arrangement played in the key of G
http://classicalguitartablature.blogspot.com/
E|--------------------------------|--------------------------------|
B|------------ 0---- 0------------|-------------- 0-- 0------------|
G| 0---------- 0---- 0-- 2--------|---- 0---- 0-- 0-- 0-- 2--------|
D| 0---------- 2---- 2-- 4--------|---- 0---- 0---- 2 2-- 4--------|
A|------------ 3-------- 5--------|---------------- 3------ 5------|
E| 3------------------------------|---- 3--------------------------|
http://classicalguitartablature.blogspot.com/
E|--------------------------------|--------------------------------|
B|------------ 0------ 0----------|-------------- 0-- 0------------|
G| 0---------- 0---------- 2------|---- 0 0-- 0-- 0-------- 2------|
D| 0---------- 2---------- 4------|---- 0-------- 2-------- 4------|
A|------------ 3---------- 5------|-------------- 3-------- 5------|
E| 3------------------------------|---- 3--------------------------|
http://classicalguitartablature.blogspot.com/
http://classicalguitartablature.blogspot.com/
E|------------ 7---- 7------------|---------------- 7-- 7----------|
B| 8---------- 8---- 8----10------|---- 8------ 8-- 8-- 8--10------|
G| 7---------- 9---- 9---- 7------|---- 7------ 7-- 9-- 9-- 7------|
D| 9---------------------- 7------|---- 9------------------ 7------|
A|10------------------------------|----10--------------------------|
E|------------ 8----------10------|---------------- 8------10------|
http://classicalguitartablature.blogspot.com/
E|------------ 7------ 7----------|-------------- 7-- 7------------|
B| 8---------- 8------ 8--10------|---- 8-- 8-- 8 8-- 8--10------ 0|
G| 7---------- 9------ 9-- 7------|---- 7-- 7-- 7 9---- 9 7------ 0|
D| 9---------------------- 7------|---- 9-- 9------------ 7------ 0|
A|10------------------------------|----10--------------------------|
E|------------ 8----------10------|-------------- 8--------10------|
http://classicalguitartablature.blogspot.com/
E|--------------------------------|-------------- 0----------------|
B|-------- 3---------------- 3----|---------- 3------------ 3------|
G|-------- 0-------------- 0------|------ 0------------------------|
D|-------------------- 0----------|---- 0--------------------------|
A|--------------------------------|--------------------------------|
E| 3-------------- 3--------------| 3------------ 3----------------|
http://classicalguitartablature.blogspot.com/
E|-------- 3----------------------|--------------------------------|
B| 1-------------------------- 1--|------------ 1------------------|
G| 0---------------------- 0------|-------- 0-------------- 0------|
D| 2------------------ 2----------|---- 2------------------ 2------|
A| 3-------------- 3--------------| 3-------------- 3--------------|
E|--------------------------------|--------------------------------|
http://classicalguitartablature.blogspot.com/
E|--------------------------------|---------------- 0--------------|
B| 0------ 3------------------ 3--|---------- 3---------- 3--------|
G| 0------ 0-------------- 0------|-------- 0-------------- 0------|
D| 0------------------ 0----------|---- 0--------------------------|
A|--------------------------------|--------------------------------|
E| 3-------------- 3--------------| 3-------------- 3--------------|
http://classicalguitartablature.blogspot.com/
E|--------------------------------|--------------------------------|
B| 1-------------------------- 1--|------------ 1------------------|
G| 2------ 2-------------- 2------|-------- 0------ 0------ 2------|
D| 3---------- 3------ 3----------|---- 2---------- 4------ 4------|
A|--------------------------------| 0-------------- 5--------------|
E| 1-------------- 1--------------|--------------------------------|
http://classicalguitartablature.blogspot.com/
E|------------------------ 0------|--------------------------------|
B| 0------ 3----------------------| 3------ 0----------------------|
G| 0------ 0------ 2--------------| 0------ 0------ 0-------- 0----|
D| 0---------- 0------ 0----------| 2-------------------- 0--------|
A|--------------------------------|---------------- 5--------------|
E| 3-------------- 2------------ 0|--------------------------------|
http://classicalguitartablature.blogspot.com/
E|-------- 3------------ 0--------|-------- 0----------------------|
B|-------- 1-------------- 0------| 3------------------------------|
G|------------------------ 0------| 0-------------- 0------ 2------|
D|---- 2------ 2------------------| 2-------------- 4------ 4------|
A| 3------------ 2----------------| 0-------------- 5--------------|
E|--------------------------------|--------------------------------|
http://classicalguitartablature.blogspot.com/
E|--------------------------------|--------------------------------|
B| 0---------- 0---- 0------------|-------------- 0-- 0------------|
G| 0---------- 0---- 0---- 2------|---- 0---- 0-- 0-- 0-- 2--------|
D| 0---------- 2---------- 4------|---- 0---- 0---- 2 2-- 4--------|
A|------------ 3---------- 5------|---------------- 3------ 5------|
E| 3------------------------------|---- 3--------------------------|
http://classicalguitartablature.blogspot.com/
E|--------------------------------|--------------------------------|
B|------------ 0------ 0----------|-------------- 0-- 0------------|
G| 0---------- 0---------- 2------|---- 0 0-- 0-- 0-------- 2------|
D| 0---------- 2---------- 4------|---- 0-------- 2-------- 4------|
A|------------ 3---------- 5------|-------------- 3-------- 5------|
E| 3------------------------------|---- 3--------------------------|
http://classicalguitartablature.blogspot.com/
E|--------------------------------|-------------- 3---- 0----------|
B| 0------ 3----------------------| 3------------------------ 3----|
G| 0------ 0-------------- 0------|-------- 0----------------------|
D| 0-------------- 0--------------|--------------------------------|
A|--------------------------------|--------------------------------|
E| 3------------------------------|--------------------------------|
http://classicalguitartablature.blogspot.com/
E|--------------------------------|--------------------------------|
B| 1------------------------------| 1------------------------------|
G| 2------ 2----------------------|-------- 2------ 0------ 2------|
D| 2---------------------- 2------|--------------------------------|
A| 3------------------------------|--------------------------------|
E|--------------------------------|--------------------------------|
http://classicalguitartablature.blogspot.com/
E|--------------------------------|-------------- 0----------------|
B| 0------ 3----------------------|-------- 3---- 3---- 3---- 0----|
G| 0------ 0----------------------| 0------------------------------|
D| 0-------------------- 0--------|--------------------------------|
A|--------------------------------|--------------------------------|
E| 3------------------------------|--------------------------------|
http://classicalguitartablature.blogspot.com/
E|--------------------------------|--------------------------------|
B|-------- 1----------------------|--------------------------------|
G| 2---------------------- 2------|-------- 2-------------- 2------|
D| 3---------------------- 3------|-------- 4-------------- 4------|
A|--------------------------------| 5------ 5------ 5------ 5------|
E| 1-------------- 0--------------|--------------------------------|
http://classicalguitartablature.blogspot.com/
E|--------------------------------|--------------------------------|
B|------------ 0------ 0----------|-------------- 0-- 0------------|
G| 0---------- 0---------- 2------|---- 0---- 0-- 0-- 0-- 2--------|
D| 0---------- 2---------- 4------|---- 0---- 0---- 2 2-- 4--------|
A|------------ 3---------- 5------|---------------- 3------ 5------|
E| 3------------------------------|---- 3--------------------------|
http://classicalguitartablature.blogspot.com/
E|--------------------------------|--------------------------------|
B|------------ 0------ 0----------|-------------- 0-- 0------------|
G| 0---------- 0---------- 2------|---- 0 0-- 0-- 0-------- 2------|
D| 0---------- 2---------- 4------|---- 0-------- 2-------- 4------|
A|------------ 3---------- 5------|-------------- 3-------- 5------|
E| 3------------------------------|---- 3--------------------------|
http://classicalguitartablature.blogspot.com/
E|------------ 7---- 7------------|---------------- 7-- 7----------|
B| 8---------- 8---- 8----10------|---- 8------ 8-- 8-- 8--10------|
G| 7---------- 9---- 9---- 7------|---- 7------ 7-- 9-- 9-- 7------|
D| 9---------------------- 7------|---- 9------------------ 7------|
A|10------------------------------|----10--------------------------|
E|------------ 8----------10------|---------------- 8------10------|
http://classicalguitartablature.blogspot.com/
E|------------ 7------ 7----------|-------------- 7-- 7------------|
B| 8---------- 8------ 8--10------|---- 8-- 8-- 8 8-- 8--10------ 0|
G| 7---------- 9------ 9-- 7------|---- 7-- 7-- 7 9---- 9 7------ 0|
D| 9---------------------- 7------|---- 9-- 9------------ 7------ 0|
A|10------------------------------|----10--------------------------|
E|------------ 8----------10------|-------------- 8--------10------|
http://classicalguitartablature.blogspot.com/
E|--------------------------------|-------------- 0----------------|
B|-------- 3---------------- 3----|---------- 3------------ 3------|
G|-------- 0-------------- 0------|------ 0------------------------|
D|-------------------- 0----------|---- 0--------------------------|
A|--------------------------------|--------------------------------|
E| 3-------------- 3--------------| 3------------ 3----------------|
http://classicalguitartablature.blogspot.com/
E|-------- 3----------------------|--------------------------------|
B| 1-------------------------- 1--|------------ 1------------------|
G| 0---------------------- 0------|-------- 0-------------- 0------|
D| 2------------------ 2----------|---- 2------------------ 2------|
A| 3-------------- 3--------------| 3-------------- 3--------------|
E|--------------------------------|--------------------------------|
http://classicalguitartablature.blogspot.com/
E|--------------------------------|---------------- 0--------------|
B| 0------ 3------------------ 3--|---------- 3---------- 3--------|
G| 0------ 0-------------- 0------|-------- 0-------------- 0------|
D| 0------------------ 0----------|---- 0--------------------------|
A|--------------------------------|--------------------------------|
E| 3-------------- 3--------------| 3-------------- 3--------------|
http://classicalguitartablature.blogspot.com/
E|--------------------------------|--------------------------------|
B| 1-------------------------- 1--|------------ 1------------------|
G| 2------ 2-------------- 2------|-------- 0------ 0------ 2------|
D| 3---------- 3------ 3----------|---- 2---------- 4------ 4------|
A|--------------------------------| 0-------------- 5--------------|
E| 1-------------- 1--------------|--------------------------------|
http://classicalguitartablature.blogspot.com/
E|------------------------ 0------|--------------------------------|
B| 0------ 3----------------------| 3------ 0----------------------|
G| 0------ 0------ 2--------------| 0------ 0------ 0-------- 0----|
D| 0---------- 0------ 0----------| 2-------------------- 0--------|
A|--------------------------------|---------------- 5--------------|
E| 3-------------- 2------------ 0|--------------------------------|
http://classicalguitartablature.blogspot.com/
E|-------- 3------------ 0--------|-------- 0----------------------|
B|-------- 1-------------- 0------| 3------------------------------|
G|------------------------ 0------| 0-------------- 0------ 2------|
D|---- 2------ 2------------------| 2-------------- 4------ 4------|
A| 3------------ 2----------------| 0-------------- 5--------------|
E|--------------------------------|--------------------------------|
http://classicalguitartablature.blogspot.com/
E|--------------------------------|--------------------------------|
B| 0---------- 0---- 0------------|-------------- 0-- 0------------|
G| 0---------- 0---- 0---- 2------|---- 0---- 0-- 0-- 0-- 2--------|
D| 0---------- 2---------- 4------|---- 0---- 0---- 2 2-- 4--------|
A|------------ 3---------- 5------|---------------- 3------ 5------|
E| 3------------------------------|---- 3--------------------------|
http://classicalguitartablature.blogspot.com/
E|--------------------------------|--------------------------------|
B|------------ 0------ 0----------|-------------- 0-- 0------------|
G| 0---------- 0---------- 2------|---- 0 0-- 0-- 0-------- 2------|
D| 0---------- 2---------- 4------|---- 0-------- 2-------- 4------|
A|------------ 3---------- 5------|-------------- 3-------- 5------|
E| 3------------------------------|---- 3--------------------------|
http://classicalguitartablature.blogspot.com/
E|------------ 7---- 7------------|---------------- 7-- 7----------|
B| 8---------- 8---- 8----10------|---- 8------ 8-- 8-- 8--10------|
G| 7---------- 9---- 9---- 7------|---- 7------ 7-- 9-- 9-- 7------|
D| 9---------------------- 7------|---- 9------------------ 7------|
A|10------------------------------|----10--------------------------|
E|------------ 8----------10------|---------------- 8------10------|
http://classicalguitartablature.blogspot.com/
E|------------ 7------ 7----------|-------------- 7-- 7------------|
B| 8---------- 8------ 8--10------|---- 8-- 8-- 8 8-- 8--10--------|
G| 7---------- 9------ 9-- 7------|---- 7-- 7-- 7 9---- 9 7--------|
D| 9---------------------- 7------|---- 9-- 9------------ 7--------|
A|10------------------------------|----10--------------------------|
E|------------ 8----------10------|-------------- 8--------10------|
http://classicalguitartablature.blogspot.com/
E| 3------------------------------|--------------------------------|
B| 3------------------------------|--------------------------------|
G| 0------------------------------|--------------------------------|
D|--------------------------------|--------------------------------|
A|--------------------------------|--------------------------------|
E| 3------------------------------|--------------------------------|
http://classicalguitartablature.blogspot.com/

0 ความคิดเห็น:

แสดงความคิดเห็น