To celebrate the anniversary, I am giving you (finally...) : iPhone LickByNeck !!!!!!

Wherever You Will Go (BASIC)

The Calling's tune fingerstyle chord melody guitar BASIC arrangement played in the key of C.
Wherever You Will Go-The Calling-BASIC Arrangement played in the key of C
http://classicalguitartablature.blogspot.com/
E|--------------------------------|--------------------------------|
B|------------------ 1------------|-------------------- 1----------|
G|-------- 0------ 0------ 0------|------ 0-------- 0---- 0--------|
D|---- 2------ 2-------------- 0--|---- 0------ 0-------------- 0--|
A| 3---------- 3------------------| 2---------- 2------------------|
E|--------------------------------|--------------------------------|
http://classicalguitartablature.blogspot.com/
E|--------------------------------|--------------------------------|
B|-------------------- 1----------|-------- 1---------- 1------ 1--|
G|------ 0------ 0-------- 0------|------------ 0------------------|
D|---- 2------ 2-------------- 0--|-- 0------------ 0------ 0------|
A| 0---------- 0------------------|--------------------------------|
E|--------------------------------| 1---------- 1------------------|
http://classicalguitartablature.blogspot.com/
http://classicalguitartablature.blogspot.com/
E|--------------------------------|--------------------------------|
B|------------ 0------ 1----------|------------ 0------ 1----------|
G|------ 0---- 0------ 0------ 0--|------ 0---- 0------ 0------ 0--|
D|-- 2-------- 2---------- 2------|---- 0------ 0------ 0-- 0------|
A| 3---------- 3------------------| 2---------- 2------------------|
E|--------------------------------|--------------------------------|
http://classicalguitartablature.blogspot.com/
E|--------------------------------|--------------------------------|
B|------------ 0---- 1-------- 3--|-- 1-------- 1------ 1------ 1--|
G|------ 0---- 0------ 0------ 2--|-- 2------ 2--------------------|
D|---- 2------ 2-------- 2---- 3--|-- 3------ 3--------------------|
A| 0---------- 0------------------|--------------------------------|
E|------------------------------ 1|---------- 1--------------------|
http://classicalguitartablature.blogspot.com/
E|--------------------------------|--------------------------------|
B|------------ 0------ 1----------|------------ 3------ 1----------|
G|-------- 0-- 0------ 0------ 0--|------ 0---- 0------ 0------ 0--|
D|---- 2------ 2---------- 2------|---- 0------ 0---------- 0------|
A| 3---------- 3------------------| 2---------- 2------------------|
E|--------------------------------|--------------------------------|
http://classicalguitartablature.blogspot.com/
E|--------------------------------|--------------------------------|
B|------------ 0------ 1----------| 3-- 1---- 1-------- 1------ 1--|
G|-------- 0-- 0------ 0----------| 2-- 2------ 2------ 2----------|
D|---- 2------ 2------ 2----------| 3-- 3---- 3-------- 3----------|
A| 0---------- 0------------------|------------------------------ 3|
E|--------------------------------| 1---------- 1------------------|
http://classicalguitartablature.blogspot.com/
E|-------------------- 0----------|-------------------- 0----------|
B|-------------------- 1-- 1-- 3--|-------- 1-- 3-------------- 1--|
G|------ 0-------------------- 0--|-------- 0-- 0------------------|
D|-- 2---------------------- 0----|---- 0--------------------------|
A|------------ 3---------------- 2|------------ 2------------------|
E|--------------------------------|--------------------------------|
http://classicalguitartablature.blogspot.com/
E|------------------ 0------------|--------------------------------|
B|-------------------- 0---- 3----|-- 3------ 1------ 1-------- 1--|
G| 2------ 2------------------ 2--|---- 2---- 2------ 2------------|
D|---- 2---------------------- 3--|---- 3---- 3-------- 3----------|
A| 0---------- 0------------------|------------------------------ 3|
E|------------------------------ 1|------------ 1------------------|
http://classicalguitartablature.blogspot.com/
E|-------------------- 0----------|-------------------- 0------ 1--|
B|-------------------- 1-- 1-- 3--|-------- 1-- 3-------------- 1--|
G|-------- 0---------- 0-- 0-- 0--|-------- 0-- 0-------------- 0--|
D|---- 2------------------ 2-- 2--|---- 0-- 0-- 0------------------|
A|------------ 3------------------| 2---------- 2------------------|
E|--------------------------------|--------------------------------|
http://classicalguitartablature.blogspot.com/
E|---- 0-------------- 0------ 1--|---- 0--------------------------|
B|---- 1------------------ 1-- 1--|---- 1------ 1------ 1-- 1------|
G|---------------------------- 2--|---- 2------ 2------ 2-- 2------|
D|-------- 2----------------------|------------ 3------ 3-- 3------|
A| 0---------- 0------------------|--------------------------------|
E|--------------------------------| 1---------- 1------------------|
http://classicalguitartablature.blogspot.com/
E|------------ 7------ 8----------|------------ 7------ 8----------|
B|-------- 8-- 5------ 5----------|------ 8---- 8------ 8----------|
G|-------- 5------------------ 5--|------ 7-------------------- 7--|
D|---- 5------------------ 5------|---- 9---------------- 9--------|
A|--------------------------------|10--------------10--------------|
E| 8-------------- 8--------------|--------------------------------|
http://classicalguitartablature.blogspot.com/
E|------------ 7------ 8------10--|---- 8------ 8------ 8----------|
B|------ 8---- 5------ 5------10--|----10------10------10---- 8----|
G|-------- 5------------------10--|----10------10------10------ 5--|
D|---- 7--------------------------|---------------------------- 5--|
A| 0-------------- 0------------ 8|---------------- 8--------------|
E|--------------------------------|--------------------------------|
http://classicalguitartablature.blogspot.com/
E|------------ 7---- 8------------|------------10------------------|
B|------ 8---- 5---- 5------------|------------12------13----------|
G|------ 5---- 5-------------- 5--|--------12--12------12------12--|
D|---- 5------------------ 5------|----12--------------12--12------|
A|--------------------------------|10--------------10--------------|
E| 8-------------- 8--------------|--------------------------------|
http://classicalguitartablature.blogspot.com/
E|------------ 7------ 8------10--|---- 8------ 8------ 8------ 5--|
B|-------- 8-- 5------ 5------10--|----10------10------10------ 5--|
G|-------- 5---------- 5------10--|----10------10------10--10-- 5--|
D|---- 7-- 7----------------------|--------------------------------|
A| 0-------------- 0--------------| 8-------------- 8--------------|
E|--------------------------------|--------------------------------|
http://classicalguitartablature.blogspot.com/
E|--------------------------------|10-- 8-- 8-- 8-------------- 3--|
B|------------------------ 5------|10--10--10--10------10------ 0--|
G|-------- 5---------- 5----------|10--10--10--10-------------- 0--|
D|---- 7---------- 7---------- 7--|--------------------------------|
A| 0---------- 0------------------| 8---------- 8------------------|
E|--------------------------------|--------------------------------|
http://classicalguitartablature.blogspot.com/
E|------------------------------ 7|-- 7-- 7-- 8------10-------- 8 7|
B|---------------------- 0------ 0|-- 0-- 0-- 0---------------- 5--|
G|------ 0------------ 0----------| 0 0-- 0---- 0---- 0---- 0-- 5--|
D|---- 0---------- 0--------------|--------------------------------|
A|--------------------------------|--------------------------------|
E| 3---------- 3------------ 3----| 0---------- 0------------------|
http://classicalguitartablature.blogspot.com/
E| 5------------------------------|10-- 8-- 8 8-- 8---------- 3----|
B| 5---------------------- 5------|10--10--10--10------10----------|
G|-------- 5---------- 5----------|10--10--10--10------------------|
D|---- 7---------- 7--------------|--------------------------------|
A| 0---------- 0-------------- 0--| 8---------- 8------------------|
E|--------------------------------|--------------------------------|
http://classicalguitartablature.blogspot.com/
E|--------------------------------|--------------------------------|
B|---------------------- 0--------|------------------------ 0------|
G|------ 0---------- 0-------- 0--|-------- 0---------- 0------ 0--|
D|-- 0------------ 0--------------|---- 2---------- 2--------------|
A|--------------------------------|--------------------------------|
E| 3---------- 3------------------| 0---------- 0------------------|
http://classicalguitartablature.blogspot.com/
E|--------------------------------|--------------------------------|
B|------------ 0------ 1----------|------------ 0------ 1----------|
G|------ 0---- 0------ 0------ 0--|------ 0---- 0------ 0------ 0--|
D|-- 2-------- 2---------- 2------|---- 0------ 0------ 0-- 0------|
A| 3---------- 3------------------| 2---------- 2------------------|
E|--------------------------------|--------------------------------|
http://classicalguitartablature.blogspot.com/
E|--------------------------------|--------------------------------|
B|------------ 0---- 1-------- 3--|-- 1-------- 1------ 1------ 1--|
G|------ 0---- 0------ 0------ 2--|-- 2------ 2--------------------|
D|---- 2------ 2-------- 2---- 3--|-- 3------ 3--------------------|
A| 0---------- 0------------------|--------------------------------|
E|------------------------------ 1|---------- 1--------------------|
http://classicalguitartablature.blogspot.com/
E|--------------------------------|--------------------------------|
B|------------ 0------ 1----------|------------ 3------ 1----------|
G|-------- 0-- 0------ 0------ 0--|------ 0---- 0------ 0------ 0--|
D|---- 2------ 2---------- 2------|---- 0------ 0---------- 0------|
A| 3---------- 3------------------| 2---------- 2------------------|
E|--------------------------------|--------------------------------|
http://classicalguitartablature.blogspot.com/
E|-------------------- 0----------|-------- 8-- 8------ 8------ 8--|
B|-------- 1-- 3------------------|--------10--10------10----------|
G|-------- 2-- 2--------------10--|--------10--10------10----------|
D|---- 2------ 2---------- 2------|----10--------------------------|
A| 0---------- 0------------------| 8------------ 8----------------|
E|--------------------------------|--------------------------------|
http://classicalguitartablature.blogspot.com/
E|------------ 7------ 8----------|------------ 7------ 8----------|
B|-------- 8-- 5------ 5----------|------ 8---- 8------ 8----------|
G|-------- 5------------------ 5--|------ 7-------------------- 7--|
D|---- 5------------------ 5------|---- 9---------------- 9--------|
A|--------------------------------|10--------------10--------------|
E| 8-------------- 8--------------|--------------------------------|
http://classicalguitartablature.blogspot.com/
E|------------ 7------ 8------10--|---- 8------ 8------ 8----------|
B|------ 8---- 5------ 5------10--|----10------10------10---- 8----|
G|-------- 5------------------10--|----10------10------10------ 5--|
D|---- 7--------------------------|---------------------------- 5--|
A| 0-------------- 0------------ 8|---------------- 8--------------|
E|--------------------------------|--------------------------------|
http://classicalguitartablature.blogspot.com/
E|------------ 7---- 8------------|------------10------------------|
B|------ 8---- 5---- 5------------|------------12------13----------|
G|------ 5---- 5-------------- 5--|--------12--12------12------12--|
D|---- 5------------------ 5------|----12--------------12--12------|
A|--------------------------------|10--------------10--------------|
E| 8-------------- 8--------------|--------------------------------|
http://classicalguitartablature.blogspot.com/
E|------------ 7------ 8------10--|---- 8------ 8------ 8------ 8--|
B|-------- 8-- 5------ 5------10--|----10------10------10----------|
G|-------- 5---------- 5------10--|----10------10------10--10-- 5--|
D|---- 7-- 7----------------------|--------------------------------|
A| 0-------------- 0--------------| 8-------------- 8--------------|
E|--------------------------------|--------------------------------|
http://classicalguitartablature.blogspot.com/
E|------------ 7------ 8----------|10------------ 7----------------|
B| 5------ 8---------- 5----------| 8------ 8---- 8-------- 8------|
G|-------- 5-- 5-------------- 5--|---- 7------ 7------ 7------ 7--|
D|---- 5------------------ 5------|--------------------------------|
A|--------------------------------|10--------------10--------------|
E| 8-------------- 8--------------|--------------------------------|
http://classicalguitartablature.blogspot.com/
E| 8-- 5---------------------- 8--|10-- 8------ 8------ 8------ 8--|
B| 5---------- 5------------------|10--10------10------10----------|
G|------------------------ 5------|10--10------10------10------ 5--|
D|-------------------- 5----------|--------------------------------|
A| 0-------------- 0--------------| 8------------ 8----------------|
E|--------------------------------|--------------------------------|
http://classicalguitartablature.blogspot.com/
E|------------ 7------ 8----------|10----------10--12----------10--|
B| 5------ 8---------- 5----------|12------12------------13----10--|
G|-------- 5-- 5-------------- 5--|----12------------12-------- 9--|
D|---- 5------------------ 5------|--------------------------------|
A|--------------------------------|10--------------10--------------|
E| 8-------------- 8--------------|--------------------------------|
http://classicalguitartablature.blogspot.com/
E|---- 8-------------------- 8----|10-- 8------ 8------ 8------ 8--|
B|----10------10----------10------|10--10------10------10----------|
G|-------- 9---------- 9----------|10--10------10------10----------|
D|--------------------------------|--------------------------------|
A| 0-------------- 0--------------| 8------------ 8----------------|
E|--------------------------------|--------------------------------|
http://classicalguitartablature.blogspot.com/
E|--------------------------------|--------------------------------|
B|--------------------------------|--------------------------------|
G|-------- 5---------- 5----------|--------------------------------|
D|---- 5---------- 5---------- 5--|--------------------------------|
A|--------------------------------|--------------------------------|
E| 8---------- 8---------- 8------| 8------------------------------|
http://classicalguitartablature.blogspot.com/

0 ความคิดเห็น:

แสดงความคิดเห็น