To celebrate the anniversary, I am giving you (finally...) : iPhone LickByNeck !!!!!!
0 com

This Never Happened Before ("The Lake House" theme)(BASIC)

Paul McCartney's tune fingerstyle chord melody guitar BASIC arrangement played in the key of E.
This Never Happened Before-Paul McCartney-BASIC Arrangement played in the key of E
http://classicalguitartablature.blogspot.com/
E|--------------------------------|------------------------ 0------|
B| 1------ 1-------------- 1------|-------- 0-------------- 0------|
G| 2------ 2-------------- 2------|-------- 1----------------------|
D|---- 2-------------- 2----------|---- 2-------------- 2----------|
A| 0---------- 0-- 0---------- 0--|--------------------------------|
E|--------------------------------| 0---------- 0-- 0---------- 0--|
http://classicalguitartablature.blogspot.com/
E|--------------------------------|------------------------ 0------|
B|-------- 1-------------- 1------|-------- 0-------------- 0------|
G|-------- 2-------------- 2------|-------- 1----------------------|
D|---- 2-------------- 2----------|---- 2-------------- 2------ 2--|
A| 0---------- 0-- 0---------- 0--|--------------------------------|
E|--------------------------------| 0---------- 0-- 0--------------|
http://classicalguitartablature.blogspot.com/
http://classicalguitartablature.blogspot.com/
E|---- 0-- 0----------------------|--------------------------------|
B|---- 1-- 1----------------------|---- 7-- 7 4-- 5---- 5----------|
G| 2-- 2-- 2-------------- 2------|---- 4 4-- 4-- 4---- 4----------|
D| 2------------------ 2----------|---- 4-- 4 4-- 6---- 6------ 6--|
A| 0---------- 0-- 0---------- 0--|-------------- 4----------------|
E|--------------------------------| 4------------------------------|
http://classicalguitartablature.blogspot.com/
E|--------------------------------|--------------------------------|
B|---- 5-- 5----------------------|------ 0------------------------|
G| 2---------------------- 2------| 2-------------- 1--------------|
D| 2------------------ 2----------|---- 2-------- 2-------- 2-- 2--|
A|--------------------------------| 0------------------------------|
E| 2---------- 2-- 2---------- 2--|---------------- 0--------------|
http://classicalguitartablature.blogspot.com/
E|--------------------------------|---------------------------- 0--|
B|---- 5-- 5----------------------|---- 5-- 5-- 5-- 5-- 5-- 5------|
G|-------- 4-------------- 4------|---- 5-- 5-- 5-- 5-- 5-- 5------|
D| 6------------------ 6----------|---- 4-- 4-- 4-- 4-- 4-- 4------|
A| 4-------- 4---- 4---------- 4--|--------------------------------|
E|--------------------------------| 5---------- 5-- 5--------------|
http://classicalguitartablature.blogspot.com/
E|--------------------------------|--------------------------------|
B|--------------------------------|-------- 0-------------- 0------|
G|-------- 1-------------- 1------|-------- 1-------------- 1------|
D|---- 2-------------- 2----------|---- 2-------------- 2------ 2--|
A|--------------------------------|--------------------------------|
E| 0---------- 0-- 0---------- 0--| 0---------- 0-- 0--------------|
http://classicalguitartablature.blogspot.com/
E|---- 0-- 0----------------------|--------------------------------|
B|---- 1-- 1----------------------|---- 7-- 7 4-- 5---- 5----------|
G| 2-- 2-- 2-------------- 2------|---- 4 4-- 4-- 4---- 4----------|
D| 2------------------ 2----------|---- 4-- 4 4-- 6---- 6------ 6--|
A| 0---------- 0-- 0---------- 0--|-------------- 4----------------|
E|--------------------------------| 4------------------------------|
http://classicalguitartablature.blogspot.com/
E|--------------------------------|--------------------------------|
B|---- 5-- 5----------------------|------ 0------------------------|
G| 2---------------------- 2------| 2-------------- 1--------------|
D| 2------------------ 2----------|---- 2-------- 2-------- 2-- 2--|
A|--------------------------------| 0------------------------------|
E| 2---------- 2-- 2---------- 2--|---------------- 0--------------|
http://classicalguitartablature.blogspot.com/
E|--------------------------------|---------------------------- 0--|
B|---- 5-- 5----------------------|---- 5-- 5-- 5-- 5-- 5-- 5------|
G|-------- 4-------------- 4------|---- 5-- 5-- 5-- 5-- 5-- 5------|
D| 6------------------ 6----------|---- 4-- 4-- 4-- 4-- 4-- 4------|
A| 4-------- 4---- 4---------- 4--|--------------------------------|
E|--------------------------------| 5---------- 5-- 5--------------|
http://classicalguitartablature.blogspot.com/
E|--------------------------------|---------------------------- 3--|
B|--------------------------------|---- 5-- 5-- 5-- 5-- 5-- 7-- 3--|
G|-------- 1-------------- 1------|---- 5-- 5-- 5-- 5---------- 0--|
D|---- 2-------------- 2----------|---- 5-- 5-- 5-- 5--------------|
A|--------------------------------|---------------- 5--------------|
E| 0---------- 0-- 0---------- 0--| 5------------------------------|
http://classicalguitartablature.blogspot.com/
E|--------------------------------|---- 0-- 0-- 0-- 0--------------|
B|-------- 3-- 0------ 3----------|---- 1-- 1-- 1-- 3-- 3------ 0--|
G|-------- 0-- 0------ 0------ 0--|---- 2-- 2-- 2-- 5------ 5------|
D|---- 0------------------ 0------|--------------------------------|
A|--------------------------------| 0------------ 5----------------|
E| 3-------------- 3--------------|--------------------------------|
http://classicalguitartablature.blogspot.com/
E|--------------------------------|--------------------------------|
B|--------------------------------|---- 1-- 1-- 1------ 0----------|
G|-------- 0-------------- 0------|---- 0-- 0-- 0-- 5------ 2-- 0--|
D|---- 0-------------- 0----------|---- 2-- 2-- 2-- 4---------- 0--|
A|--------------------------------| 0-------------- 5--------------|
E| 3---------- 3-- 3---------- 3--|--------------------------------|
http://classicalguitartablature.blogspot.com/
E|--------------------------------|-------- 0----------------------|
B|---- 0------------------ 0------|---- 0------ 3---------- 3------|
G|---------- 1-------- 1------ 1--|--------------------------------|
D|------------ 2------------------|-------------------- 2------ 2--|
A|--------------------------------|--------------------------------|
E| 3---------- 0------------------| 0-------------- 0--------------|
http://classicalguitartablature.blogspot.com/
E|---- 0-- 0----------------------|--------------------------------|
B|---- 1-- 1----------------------|---- 7-- 7 4-- 5---- 5----------|
G| 2-- 2-- 2-------------- 2------|---- 4 4-- 4-- 4---- 4----------|
D| 2------------------ 2----------|---- 4-- 4 4-- 6---- 6------ 6--|
A| 0---------- 0-- 0---------- 0--|-------------- 4----------------|
E|--------------------------------| 4------------------------------|
http://classicalguitartablature.blogspot.com/
E|--------------------------------|--------------------------------|
B|---- 5-- 5----------------------|------ 0------------------------|
G| 2---------------------- 2------| 2-------------- 1--------------|
D| 2------------------ 2----------|---- 2-------- 2-------- 2-- 2--|
A|--------------------------------| 0------------------------------|
E| 2---------- 2-- 2---------- 2--|---------------- 0--------------|
http://classicalguitartablature.blogspot.com/
E|--------------------------------|---------------------------- 0--|
B|---- 5-- 5----------------------|---- 5-- 5-- 5-- 5-- 5-- 5------|
G|-------- 4-------------- 4------|---- 5-- 5-- 5-- 5-- 5-- 5------|
D| 6------------------ 6----------|---- 4-- 4-- 4-- 4-- 4-- 4------|
A| 4-------- 4---- 4---------- 4--|--------------------------------|
E|--------------------------------| 5---------- 5-- 5--------------|
http://classicalguitartablature.blogspot.com/
E|--------------------------------|---------------------------- 0--|
B|--------------------------------|---- 5-- 5-- 5-- 5-- 5-- 5------|
G|-------- 1-------------- 1------|---- 5-- 5-- 5-- 5-- 5-- 5------|
D|---- 2-------------- 2----------|---- 4-- 4-- 4-- 4-- 4-- 4------|
A|--------------------------------|--------------------------------|
E| 0---------- 0-- 0---------- 0--| 5---------- 5-- 5--------------|
http://classicalguitartablature.blogspot.com/
E|--------------------------------|--------------------------------|
B|--------------------------------|---- 5-- 5---- 5-- 5---- 5---- 5|
G|-------- 1-------------- 1------|---- 5-- 5---- 5-- 5---- 5---- 5|
D|---- 2-------------- 2----------|---- 4-- 4---- 4-- 4---- 4---- 4|
A|--------------------------------|--------------------------------|
E| 0---------- 0-- 0---------- 0--| 5------------ 5-- 5------------|
http://classicalguitartablature.blogspot.com/
E|---- 0--------------------------|------ 0------------------------|
B|--------------------------------|-- 0----------------------------|
G|--------------------------------| 1------------------------------|
D|------------------------------ 4|--------------------------------|
A|--------------------------------|--------------------------------|
E|---------------- 0--------------|--------------------------------|
http://classicalguitartablature.blogspot.com/
0 com

Karma Chameleon (BASIC)

Culture Club's tune fingerstyle chord melody guitar BASIC arrangement played in the key of C.
Karma Chameleon-Culture Club-BASIC Arrangement played in the key of G
http://classicalguitartablature.blogspot.com/
E| 3---- 3---- 3------------------|--------------------------------|
B| 3---- 3---- 3---- 6-- 4 5------| 1------------------------------|
G| 4---- 4---- 4------------ 5 2 0| 0------------------------------|
D|--------------------------------| 2------------------------------|
A|--------------------------------| 3------------------------------|
E| 3------------------------------|--------------------------------|
http://classicalguitartablature.blogspot.com/
E| 3---- 3---- 3------------------|------------ 0-------- 0--------|
B| 3---- 3---- 3---- 6-- 4--------| 1-- 1 3-- 1---- 3-- 3---- 3 1--|
G| 4---- 4---- 4---- 4---- 0-- 2--| 0-- 0---------- 0-- 0----------|
D|------------------ 3------------| 2-- 2---------- 0--------------|
A|--------------------------------| 3------ 3----------------------|
E| 3------------------------------|---------------- 3------ 3------|
http://classicalguitartablature.blogspot.com/
http://classicalguitartablature.blogspot.com/
E|--------------------------------|------------ 0-------- 0--------|
B| 1------------------------------| 1-- 1 3-- 1---- 3-- 3---- 3 1--|
G| 0---- 2---- 0-- 0---- 0---- 2--| 0-- 0---------- 0-- 0----------|
D| 2---- 2---- 2-- 2---- 2---- 2--| 2-- 2---------- 0--------------|
A| 3---- 3-------- 3---- 3--------| 3------ 3----------------------|
E|--------------------------------|---------------- 3------ 3------|
http://classicalguitartablature.blogspot.com/
E|---------------------- 0--------|--------------------------------|
B| 1-------------------- 1---- 3--| 1------------------ 1-- 0-- 1--|
G| 0---- 2---- 0-- 0---- 0---- 0--| 2---- 2-- 2---- 2------ 2-- 2--|
D| 2---------- 2-- 2-------- 2----| 3---- 3-- 3---- 3------ 3-- 3--|
A| 3---- 3-------- 3---- 3--------|--------------------------------|
E|--------------------------------| 1---- 1------ 0 1------ 1------|
http://classicalguitartablature.blogspot.com/
E|---- 0------------ 0------------|--------------------------------|
B| 3---- 3---------- 3------ 3----| 1------------------ 1-- 0-- 1--|
G| 0---- 0---- 0------------ 0----| 2---- 2-- 2---- 2------ 2-- 2--|
D| 0------ 0---------------- 0----| 3---- 3-- 3---- 3------ 3-- 3--|
A|--------------------------------|--------------------------------|
E| 3---- 3---- 0 3------ 3--------| 1---- 1------ 0 1------ 1------|
http://classicalguitartablature.blogspot.com/
E|-------------------- 0----------|--------------------------------|
B| 3------------------ 3------ 3--| 1------------------ 1-- 0-- 1--|
G| 0---- 0------------ 0----------| 2---- 2-- 2---- 2------ 2-- 2--|
D| 0---- 0------------------------| 3---- 3-- 3---- 3------ 3-- 3--|
A|--------------------------------|--------------------------------|
E| 3---- 3-------- 3------ 3------| 1---- 1------ 0 1------ 1------|
http://classicalguitartablature.blogspot.com/
E|---- 0------------ 0------------|--------------------------------|
B| 3---- 3---------- 3------ 3----|-------------------- 5-- 3------|
G| 0---- 0---- 0------------ 0----| 5---- 5-- 5-------- 5-- 5-- 5--|
D| 0------ 0---------------- 0----| 3---- 3-- 3---- 3-- 3-- 3------|
A|--------------------------------| 5---- 5------ 0 5------ 5------|
E| 3---- 3---- 0 3------ 3--------|--------------------------------|
http://classicalguitartablature.blogspot.com/
E|---------------------------- 0--| 0 0 0-- 0 0 0-------- 0--------|
B| 1-------------- 0---------- 1--| 1 1 1-- 1-- 1 3 3-- 3 3-- 3-- 1|
G| 2-------------- 0---------- 0--|-- 0 0------ 0 0 0-- 0 0-- 0-- 2|
D|-- 2-- 2-- 2-- 2----------------|-------------- 2 2-- 2---- 2----|
A| 0-- 0-- 0-- 0------------------| 3---- 3------------------------|
E|---------------- 3--------------|---------------- 0------ 0------|
http://classicalguitartablature.blogspot.com/
E|--------------------------------|--------------------------------|
B|---------- 1-------- 1-- 0-- 1--| 3-------- 3-------- 5-- 3------|
G|------ 2------ 2---- 2-- 2-- 2--| 5---- 5------ 5---- 5-- 5-- 5--|
D|---- 2------ 2------ 2-- 2-- 2--|---- 3------ 3---------- 3------|
A| 0------ 0------ 0------ 0------| 5------ 5------ 5------ 5------|
E|--------------------------------|--------------------------------|
http://classicalguitartablature.blogspot.com/
E|------------ 0------------------| 0 0 0 0-- 0 0 0------ 0--------|
B| 1-------- 3-- 3----------------| 1 1 1 1-- 1 1 1 3 3 3 3---- 3--|
G| 2---- 2---- 0-------- 0---- 0--| 0 0 0 0-- 0 0 0 0 0 0 0---- 0--|
D|---- 3-------------- 0------ 0--|---------------- 2 2 2----------|
A|--------------------------------| 3------ 3----------------------|
E| 1------ 1------ 3------ 3------|---------------- 0------ 0------|
http://classicalguitartablature.blogspot.com/
E|--------------------------------|--------------------------------|
B| 1-------- 1-------- 1-- 0-- 1--| 3-------- 3-------- 5-- 3------|
G| 0---- 0------ 0------ 0--------| 5---- 5------ 5---- 5-- 5-- 5--|
D|---- 2------ 2------------------|---- 3------ 3---------- 3------|
A| 0------ 0------ 0------ 0------| 5------ 5------ 5------ 5------|
E|--------------------------------|--------------------------------|
http://classicalguitartablature.blogspot.com/
E|------------ 0------------------| 1-- 1 3------------ 1-- 0-- 1--|
B| 1-------- 3-- 3----------------| 1-- 1 1------ 1---- 1-- 1-- 1--|
G| 2---- 2---- 0-------- 0---- 0--| 2-- 2 2---- 2------ 2-- 2-- 2--|
D|---- 3-------------- 0------ 0--|--------------------------------|
A|--------------------------------|--------------------------------|
E| 1------ 1------ 3------ 3------| 1------ 1------ 1------ 1------|
http://classicalguitartablature.blogspot.com/
E| 0---------- 8 7----------------|------ 3------------------------|
B| 0---------- 0-- 0-- 8----------| 6-- 6 6---- 6------ 6-- 5-- 6--|
G| 0---- 7-------- 7---------- 7--| 5-- 5 5---- 5------ 5-- 5-- 5--|
D|--------------------------------| 3-- 3------ 3------ 3------ 3--|
A|--------------------------------| 5------ 5------ 5------ 5------|
E| 0------ 0------ 0------ 0------|--------------------------------|
http://classicalguitartablature.blogspot.com/
E| 0------------ 0----------------| 1-- 1 3------------ 1-- 0-- 1--|
B| 1------------ 1------------ 1--| 1-- 1 1------ 1---- 1-- 1-- 1--|
G| 2---- 2-------------- 2--------| 2-- 2 2---- 2------ 2-- 2-- 2--|
D|---- 2------ 2------ 2----------|--------------------------------|
A| 0------ 0------ 0------ 0------|--------------------------------|
E|--------------------------------| 1------ 1------ 1------ 1------|
http://classicalguitartablature.blogspot.com/
E| 0---------- 8 7----------------|------ 3------------------------|
B| 0---------- 0-- 0-- 8----------| 6-- 6 6---- 6------ 6-- 5-- 6--|
G| 0---- 7-------- 7---------- 7--| 5-- 5 5---- 5------ 5-- 5-- 5--|
D|--------------------------------| 3-- 3------ 3------ 3------ 3--|
A|--------------------------------| 5------ 5------ 5------ 5------|
E| 0------ 0------ 0------ 0------|--------------------------------|
http://classicalguitartablature.blogspot.com/
E| 0------------ 0----------------| 0 0 0 0 0 0 0 0------ 0--------|
B| 1---------- 0------------------| 1 1 1 1 1 1 1 1 3 3 3------ 3--|
G|------ 2---- 0-------- 0--------| 0 0 0 0 0 0 0 0 0 0 0----------|
D|---- 2------ 2 0---- 0------ 0--|---------------- 2 2------------|
A| 0------ 0----------------------| 3------------------------------|
E|---------------- 3------ 3------|---------------- 0--------------|
http://classicalguitartablature.blogspot.com/
E|--------------------------------|--------------------------------|
B| 1---------- 1------ 1-- 0-- 1--| 3---------- 3------ 5-- 3------|
G| 0------ 0----------------------| 5------ 5---------- 5-- 5-- 5--|
D|---- 2-------- 2----------------|---- 3--------------------------|
A| 0-------------- 0--------------| 5-------------- 5--------------|
E|--------------------------------|--------------------------------|
http://classicalguitartablature.blogspot.com/
E|------------ 0------------------| 0 0 0 0-- 0 0 0------ 0--------|
B| 1-------- 3-- 3----------------| 1 1 1 1-- 1 1 1 3 3 3 3---- 3--|
G| 2------ 2-------------- 0------| 0 0 0 0-- 0 0 0 0 0 0 0---- 0--|
D|---- 3-------------- 0----------|---------------- 2 2 2----------|
A|--------------------------------| 3------ 3----------------------|
E| 1-------------- 3---------- 3--|---------------- 0------ 0------|
http://classicalguitartablature.blogspot.com/
E|--------------------------------|--------------------------------|
B| 1-------- 1-------- 1-- 0-- 1--| 3-------- 3-------- 5-- 3------|
G| 0---- 0------ 0------ 0--------| 5---- 5------ 5---- 5-- 5-- 5--|
D|---- 2------ 2------------------|---- 3------ 3---------- 3------|
A| 0------ 0------ 0------ 0------| 5------ 5------ 5------ 5------|
E|--------------------------------|--------------------------------|
http://classicalguitartablature.blogspot.com/
E|------------ 0------------------| 0-- 0 0-- 0 0-------- 0--------|
B| 1-------- 3-- 3----------------| 1-- 1 1-- 1 1-- 3-- 3 1---- 3--|
G| 2---- 2---- 0-------- 0---- 0--| 0-- 0 0-- 0 0-- 0-- 0 0---- 0--|
D|---- 3-------------- 0------ 0--|-------------------- 0 2---- 0--|
A|--------------------------------| 3-------------- 2---- 0--------|
E| 1------ 1------ 3------ 3------|---------------------------- 3--|
http://classicalguitartablature.blogspot.com/
E|--------------------------------|--------------------------------|
B| 1------------------------------|--------------------------------|
G| 0------------------------------|--------------------------------|
D| 2------------------------------|--------------------------------|
A| 3------------------------------|--------------------------------|
E|--------------------------------|--------------------------------|
http://classicalguitartablature.blogspot.com/
0 com

Let's Dance (BASIC)

David Bowie's tune fingerstyle chord melody guitar BASIC arrangement played in the key of Am.
Lets Dance-David Bowie-BASIC Arrangement played in the key of Am.
http://classicalguitartablature.blogspot.com/
E|--------------------------------|--------------------------------|
B|--------------------------------|--------------------------------|
G|--------------------------------|--------------------------------|
D| 0---------------------------- 4|--------------------------------|
A| 5-- 5-- 5-- 5-- 5-- 5-- 5-- 5--| 5-- 5-- 5-- 5-- 5-- 5-- 5-- 5--|
E|--------------------------------|--------------------------------|
http://classicalguitartablature.blogspot.com/
E|--------------------------------|--------------------------------|
B|--------------------------------|--------------------------------|
G| 2---------------------------- 5|--------------------------------|
D| 4---------------------------- 4|--------------------------------|
A| 5-- 5-- 5-- 5-- 5-- 5 5---- 5--| 5-- 5-- 5-- 5-- 5-- 5-- 5-- 5--|
E|--------------------------------|--------------------------------|
http://classicalguitartablature.blogspot.com/
http://classicalguitartablature.blogspot.com/
E|--------------------------------|--------------------------------|
B| 3---- 3------ 3 3--------------|--------------------------------|
G| 0---- 0---- 0-- 0--------------|--------------------------------|
D| 2---- 2------ 2 2--------------|--------------------------------|
A| 0------------------------------| 0-- 0---------- 0--------------|
E|-------- 3------ 2------ 0------|------ 3---- 4------------------|
http://classicalguitartablature.blogspot.com/
E|--------------------------------|--------------------------------|
B| 1---- 1---- 1 1----------------|--------------------------------|
G| 0---- 0---- 0 0----------------|---- 7------ 5------ 4------ 2--|
D| 2---- 2---- 2 2----------------|--------------------------------|
A| 0-- 0---------- 0--------------| 5------ 3------ 2------ 0------|
E|-------- 3-- 4------------------|--------------------------------|
http://classicalguitartablature.blogspot.com/
E|--------------------------------|--------------------------------|
B| 3---- 3------ 3 3--------------|------------------------------ 1|
G| 2---- 2------ 2 2--------------|------------------------------ 2|
D| 3---- 3------ 3 3--------------|------------------------------ 2|
A|---------------------------- 2--|--------------------------------|
E| 1---- 1---- 1-- 1--------------| 1---- 1---- 1-- 1--------------|
http://classicalguitartablature.blogspot.com/
E|--------------------------------|------------------------ 0------|
B|------ 1------ 1 1--------------|--------------------------------|
G|------ 2---- 2-- 2--------------|--------------------------------|
D|------ 2-------- 2--------------|--------------------------------|
A| 0------------------------------| 0-- 0--------------------------|
E|-------- 3------ 2------ 0------|-------- 3-- 4-- 5--------------|
http://classicalguitartablature.blogspot.com/
E|--------------------------------|--------------------------------|
B|--------------------------------|--------------------------------|
G| 2------------------------------| 0---- 2---- 0-- 2---- 0---- 2 0|
D| 2------------------------------| 2---- 2---- 2-- 2---- 2--------|
A| 0------------------------------| 0-- 0---------- 0--------------|
E|-------- 3------ 2------ 0------|------ 3---- 4------------------|
http://classicalguitartablature.blogspot.com/
E|--------------------------------|------------------------ 0------|
B| 1------------------------------|-------- 1---- 3----------------|
G|------ 2---- 2------------------|---- 2------ 2------ 2----------|
D|------ 2---- 2------------------|--------------------------------|
A| 0-- 0---------- 0--------------| 5------ 3------ 1------ 0------|
E|-------- 3-- 4------------------|--------------------------------|
http://classicalguitartablature.blogspot.com/
E|--------------------------------|--------------------------------|
B|--------------------------------|------------ 1---------- 1------|
G| 2---------------------- 2-- 0--| 2------ 2------ 2---------- 2--|
D| 2------------------------------|--------------------------------|
A|---------------------------- 2--|--------------------------------|
E| 1---- 1---- 1-- 1--------------| 1---- 1---- 1-- 1--------------|
http://classicalguitartablature.blogspot.com/
E|--------------------------------|------------------------ 0------|
B| 1------------------------------|-------- 1---- 3----------------|
G|------ 2---- 2------------------|---- 2------ 2------ 2----------|
D|--------------------------------|--------------------------------|
A| 0------------------------------| 0-- 0--------------------------|
E|-------- 3------ 2------ 0------|-------- 3-- 4-- 5--------------|
http://classicalguitartablature.blogspot.com/
E|--------------------------------|--------------------------------|
B|--------------------------------|--------------------------------|
G| 2------------------------------| 0---- 2---- 0-- 2---- 0---- 2 0|
D| 2------------------------------| 2---- 2---- 2-- 2---- 2--------|
A| 0------------------------------| 0-- 0---------- 0--------------|
E|-------- 3------ 2------ 0------|------ 3---- 4------------------|
http://classicalguitartablature.blogspot.com/
E|--------------------------------|------------------------ 0------|
B| 1------------------------------|-------- 1---- 3----------------|
G|------ 2---- 2------------------|---- 2------ 2------ 2----------|
D|------ 2---- 2------------------|--------------------------------|
A| 0-- 0---------- 0--------------| 5------ 3------ 1------ 0------|
E|-------- 3-- 4------------------|--------------------------------|
http://classicalguitartablature.blogspot.com/
E|--------------------------------|--------------------------------|
B|--------------------------------|------------ 1---------- 1------|
G| 2---------------------- 2-- 0--| 2------ 2------ 2---------- 2--|
D| 2------------------------------|--------------------------------|
A|---------------------------- 2--|--------------------------------|
E| 1---- 1---- 1-- 1--------------| 1---- 1---- 1-- 1--------------|
http://classicalguitartablature.blogspot.com/
E|--------------------------------|------------------------ 0------|
B| 1------------------------------|-------- 1------ 3--------------|
G|------ 2---- 2------------------|---- 2---- 2-------- 2------ 2--|
D|--------------------------------|--------------------------------|
A| 0------------------------------| 0-- 0--------------------------|
E|-------- 3------ 2------ 0------|-------- 3-- 4-- 5--------------|
http://classicalguitartablature.blogspot.com/
E|--------------------------------|--------------------------------|
B|---------------- 0-- 3------ 3--| 3---------- 3-------- 0--------|
G| 0---------- 0-- 0-- 0------ 0--| 0---------- 0---------- 0------|
D| 0---------- 0-- 0-- 0------ 0--| 0---------- 0------ 0----------|
A|--------------------------------|--------------------------------|
E| 3---- 3---- 3-------------- 3--| 3---- 3---- 3------------------|
http://classicalguitartablature.blogspot.com/
E|--------------------------------|--------------------------------|
B|------------ 0------------------|--------------------------------|
G| 0---- 0 0------ 2--------------|------ 0-------------- 2--------|
D| 2---- 2-------- 4---- 4--------|------ 2-------------- 4--------|
A| 3---------- 3-- 5---------- 5--| 3---------- 3-- 5---------- 5--|
E|--------------------------------|--------------------------------|
http://classicalguitartablature.blogspot.com/
E|--------------------------------|--------------------------------|
B|-------- 0------ 0-- 3------ 3--| 3------------------------------|
G|------------ 0-- 0-- 0------ 0--| 0-------------------------- 0--|
D|------ 0---- 0------ 0------ 0--|-------------------- 0----------|
A|--------------------------------|--------------------------------|
E| 3---------- 3-- 3---------- 3--| 3---- 3---- 3-------------- 3--|
http://classicalguitartablature.blogspot.com/
E|--------------------------------|--------------------------------|
B|--------------------------------| 1-------------- 3--------------|
G| 0-------------- 2--------------|--------------------------------|
D| 2-------------- 4--------------|---------------- 4---------- 0--|
A| 3-- 3-- 3-- 3-- 5-- 5-- 5-- 5--| 3-- 3-- 3-- 3-- 5-- 5-- 5-- 5--|
E|--------------------------------|--------------------------------|
http://classicalguitartablature.blogspot.com/
E|--------------------------------|--------------------------------|
B|---------------- 0---- 1-- 0----|--------------------------------|
G| 0------ 2---- 0----------------|-------- 0-------------- 0------|
D|---- 0-------------- 0----------|---- 2-------------- 2----------|
A|--------------------------------|--------------------------------|
E| 3---------- 3-- 3------------ 0|------------ 0-- 0---------- 0--|
http://classicalguitartablature.blogspot.com/
E|--------------------------------|--------------------------------|
B| 3---- 1-------- 0--------------|--------------------------------|
G| 0------------------ 2-- 0-- 2--|--------------------------------|
D|---- 2--------------------------|--------------------------------|
A| 3---------- 3-- 3---------- 3--| 5-- 5-- 5-- 5-- 5-- 5-- 5-- 5--|
E|--------------------------------|--------------------------------|
http://classicalguitartablature.blogspot.com/
E|--------------------------------|--------------------------------|
B|---------- 0--------------------|------------ 0------------------|
G| 2-- 2---------- 2--------------| 2-- 2-------- 2----------------|
D| 4------------------------------| 4------------------------------|
A| 5-- 5-- 5 5---- 5-- 5-- 5-- 5--| 5-- 5-- 5-- 5-- 5-- 5-- 5-- 5--|
E|--------------------------------|--------------------------------|
http://classicalguitartablature.blogspot.com/
E|---------------------------- 0--|--------------------------------|
B|------ 0-------------- 3--------|--------------------------------|
G| 2-------------- 5--------------|--------------------------------|
D| 4------------------------------|--------------------------------|
A| 5-- 5-- 5-- 5-- 5-- 5-- 5-- 5--| 0------------------------------|
E|--------------------------------|-------- 3------ 2------ 0------|
http://classicalguitartablature.blogspot.com/
E|--------------------------------|--------------------------------|
B|--------------------------------| 1------------------------------|
G| 0---- 2---- 0-- 2---- 0---- 2 0|------ 2---- 2------------------|
D| 2---- 2---- 2-- 2---- 2--------|------ 2---- 2------------------|
A| 0-- 0---------- 0--------------| 0-- 0---------- 0--------------|
E|------ 3---- 4------------------|-------- 3-- 4------------------|
http://classicalguitartablature.blogspot.com/
E|------------------------ 0------|--------------------------------|
B|-------- 1---- 3----------------|--------------------------------|
G|---- 2------ 2------ 2----------| 2---------------------- 2-- 0--|
D|--------------------------------| 2------------------------------|
A| 5------ 3------ 1------ 0------|---------------------------- 2--|
E|--------------------------------| 1---- 1---- 1-- 1--------------|
http://classicalguitartablature.blogspot.com/
E|--------------------------------|--------------------------------|
B|------------ 1---------- 1------| 1------------------------------|
G| 2------ 2------ 2---------- 2--|------ 2---- 2------------------|
D|--------------------------------|--------------------------------|
A|--------------------------------| 0------------------------------|
E| 1---- 1---- 1-- 1--------------|-------- 3------ 2------ 0------|
http://classicalguitartablature.blogspot.com/
E|------------------------ 0------|--------------------------------|
B|-------- 1---- 3----------------|--------------------------------|
G|---- 2------ 2------ 2----------| 2------------------------------|
D|--------------------------------| 2------------------------------|
A| 0-- 0--------------------------| 0------------------------------|
E|-------- 3-- 4-- 5--------------|-------- 3------ 2------ 0------|
http://classicalguitartablature.blogspot.com/
E|--------------------------------|--------------------------------|
B|--------------------------------| 1------------------------------|
G| 0---- 2---- 0-- 2---- 0---- 2 0|------ 2---- 2------------------|
D| 2---- 2---- 2-- 2---- 2--------|------ 2---- 2------------------|
A| 0-- 0---------- 0--------------| 0-- 0---------- 0--------------|
E|------ 3---- 4------------------|-------- 3-- 4------------------|
http://classicalguitartablature.blogspot.com/
E|------------------------ 0------|--------------------------------|
B|-------- 1---- 3----------------|--------------------------------|
G|---- 2------ 2------ 2----------| 2---------------------- 2-- 0--|
D|--------------------------------| 2------------------------------|
A| 5------ 3------ 1------ 0------|---------------------------- 2--|
E|--------------------------------| 1---- 1---- 1-- 1--------------|
http://classicalguitartablature.blogspot.com/
E|--------------------------------|--------------------------------|
B|------------ 1---------- 1------| 1------------------------------|
G| 2------ 2------ 2---------- 2--|------ 2---- 2------------------|
D|--------------------------------|--------------------------------|
A|--------------------------------| 0------------------------------|
E| 1---- 1---- 1-- 1--------------|-------- 3------ 2------ 0------|
http://classicalguitartablature.blogspot.com/
E|------------------------ 0------|--------------------------------|
B|-------- 1------ 3--------------|--------------------------------|
G|---- 2---- 2-------- 2------ 2--|--------------------------------|
D|--------------------------------| 0---------------------------- 4|
A| 0-- 0--------------------------| 5-- 5-- 5-- 5-- 5-- 5-- 5-- 5--|
E|-------- 3-- 4-- 5--------------|--------------------------------|
http://classicalguitartablature.blogspot.com/
E|--------------------------------|--------------------------------|
B|--------------------------------|--------------------------------|
G|--------------------------------| 2---------------------------- 5|
D|--------------------------------| 4---------------------------- 4|
A| 5-- 5-- 5-- 5-- 5-- 5-- 5-- 5--| 5-- 5-- 5-- 5-- 5-- 5 5---- 5--|
E|--------------------------------|--------------------------------|
http://classicalguitartablature.blogspot.com/
E|--------------------------------|--------------------------------|
B|--------------------------------| 3---- 3------ 3 3--------------|
G|--------------------------------| 0---- 0---- 0-- 0--------------|
D|--------------------------------| 2---- 2------ 2 2--------------|
A| 5-- 5-- 5-- 5-- 5-- 5-- 5-- 5--| 0------------------------------|
E|--------------------------------|-------- 3------ 2------ 0------|
http://classicalguitartablature.blogspot.com/
E|--------------------------------|--------------------------------|
B|--------------------------------|--------------------------------|
G|--------------------------------|--------------------------------|
D|--------------------------------|--------------------------------|
A| 0-- 0---------- 0--------------|--------------------------------|
E|------ 3---- 4------------------|--------------------------------|
http://classicalguitartablature.blogspot.com/
0 com

Keeping The Dream Alive (BASIC)

Freheit's tune fingerstyle chord melody guitar BASIC arrangement played in the key of G.
Keeping The Dream Alive-Freiheit-BASIC Arrangement played in the key of G
http://classicalguitartablature.blogspot.com/
E| 7------ 7 7 7 7 7 7 7 7 7 7 7 7|---------------- 7 7 7 7--------|
B| 0------------------------------|1212121212121212-------- 8--10--|
G| 0------------------------------|------------------------ 7------|
D|--------------------------------|---------------------- 7------10|
A|--------------------------------|14------10------ 8--------------|
E| 3------------------------------|---------------------- 8------10|
http://classicalguitartablature.blogspot.com/
E|----10---------------------- 3--|--------------------------------|
B|12------12--10-------------- 3--|-------- 3-------------- 3------|
G|12----12----11----------12-- 0--|-------- 0-------------- 0------|
D|------------10------10----------|---- 0-------------- 0----------|
A|--------------------------------|--------------------------------|
E|----------------10--------------| 3---------- 3-- 3---------- 3--|
http://classicalguitartablature.blogspot.com/
http://classicalguitartablature.blogspot.com/
E|------------ 0-- 2------ 3------| 0------------------------------|
B|---- 3-- 3------ 1--------------| 2---------- 3---------- 0-- 0--|
G|---- 0-- 0------ 0-- 0------ 0--|-------- 0-------------- 0------|
D|---- 0-- 0---- 2----------------|---- 2---- 0-------- 0----------|
A|---------------- 0--------------| 1-------------- 2--------------|
E| 3------------------------------|--------------------------------|
http://classicalguitartablature.blogspot.com/
E|------------ 0-------- 0---- 2 3|---- 3-- 2----------------------|
B| 0---------- 1-------- 1------ 0|---- 0-- 0---- 5----------------|
G|---- 2------ 2------------------| 0-- 0-- 0---- 5-------- 5-- 7--|
D|-------- 2---------- 2----------|---------- 0-------- 5----------|
A| 4-------------- 3--------------| 2------ 3---- 5----------------|
E|--------------------------------|--------------------------------|
http://classicalguitartablature.blogspot.com/
E|------------ 0-- 2------ 3------| 0------------------------------|
B|---- 3-- 3------ 1--------------| 2---------- 3---------- 0-- 0--|
G|---- 0-- 0------ 0-- 0------ 0--|-------- 0-------------- 0------|
D|---- 0-- 0---- 2----------------|---- 2---- 0-------- 0----------|
A|---------------- 0--------------| 1-------------- 2--------------|
E| 3------------------------------|--------------------------------|
http://classicalguitartablature.blogspot.com/
E|------------ 0-------- 0---- 2 3|---- 3-- 2----------------------|
B| 0---------- 1-------- 1------ 0|---- 0-- 0---- 5----------------|
G|---- 2------ 2------------------| 0-- 0-- 0---- 5-------- 5-- 7--|
D|-------- 2---------- 2----------|---------- 0-------- 5----------|
A| 4-------------- 3--------------| 2------ 3---- 5----------------|
E|--------------------------------|--------------------------------|
http://classicalguitartablature.blogspot.com/
E|------ 7-- 7------ 3-------- 7--|-------- 7 7---------------- 8--|
B|------ 0-- 0---------------- 6--|---- 6-- 6 6------ 8-------- 8--|
G|---- 0---------------------- 7--|---- 7-- 7 7------------ 7-- 9--|
D|-- 0-------------------- 0------|--------------------------------|
A|--------------------------------|--------------------------------|
E| 3------------ 3----------------| 3------------ 3----------------|
http://classicalguitartablature.blogspot.com/
E|-------- 8-- 8-------------- 8--|---- 8--------------------------|
B|-------- 8-- 8---- 8--------11--|----11--11--11--10-- 8------ 3--|
G|------ 9 9-- 9---- 9-------- 8--|---- 8-- 8-- 8-- 8-- 8------ 0--|
D|--10--------------------10------|--------10--10--10------10-- 0--|
A|10--------------10--------------| 8-------------- 8--------------|
E|--------------------------------|--------------------------------|
http://classicalguitartablature.blogspot.com/
E|---------- 0------------ 5-- 3--|---- 2-- 0----------------------|
B|---- 3-- 3-- 0-- 7-- 8------ 1--|---- 1-- 1-- 3------------------|
G|---- 0---------- 5---------- 0--|------------ 4-------------- 2--|
D|-------------- 7----------------|------------ 5------ 5-- 5------|
A|-------------- 0----------------| 3-------------- 5--------------|
E| 3------------------------------|--------------------------------|
http://classicalguitartablature.blogspot.com/
E|--------------------------------|--------------------------------|
B|---- 3--------------------------|------------ 0------------ 1----|
G| 4------ 4-- 2---------- 0-- 0--|-------- 0-------------- 0-- 2--|
D| 5------ 5-- 4------ 4----------|---- 0-------------- 0------ 2--|
A| 5-------------- 5--------------|--------------------------------|
E|--------------------------------| 3------------------------------|
http://classicalguitartablature.blogspot.com/
E|---------------------------- 0--|--------------------------------|
B|---- 1------------------ 1------|---------------------------- 3--|
G|-------------------- 2----------|-------- 2---------- 2----------|
D|------------ 2------------------|---- 4------ 4---------- 4------|
A| 0------------------------------| 2------------------------------|
E|--------------------------------|--------------------------------|
http://classicalguitartablature.blogspot.com/
E|---- 7------------ 7 8-- 7---- 7|-------------- 5----------------|
B|---- 8--------------------10-- 7|------------ 7 5------------ 5--|
G| 9-------------- 9---- 9------ 8|------ 8-------------- 5--------|
D| 9---------- 9------------------|-- 7---------------- 5----------|
A|--------------------------------|-------------- 5----------------|
E| 8---------------------------- 7|--------------------------------|
http://classicalguitartablature.blogspot.com/
E|------------ 0---------- 5-- 3--|---- 2-- 0----------------------|
B|---- 3-- 3------ 7-- 8------ 1--|---- 1-- 1-- 3------------------|
G|---- 0-- 0------ 5---------- 0--|------------ 4-------------- 2--|
D|---- 0---------- 7--------------|------------ 5------ 5-- 5------|
A|--------------------------------| 3-------------- 5--------------|
E| 3-------------- 5--------------|--------------------------------|
http://classicalguitartablature.blogspot.com/
E|--------------------------------|-------- 7-- 7------ 3------ 7--|
B|---- 3--------------------------|-------- 0-- 0-------------- 6--|
G| 4------ 4-- 2---------- 0-- 0--|------ 0 0-- 0-------------- 7--|
D| 5------ 5-- 4------ 4----------|---- 0------------------ 0------|
A| 5-------------- 5--------------|--------------------------------|
E|--------------------------------| 3-------------- 3--------------|
http://classicalguitartablature.blogspot.com/
E|-------- 7-- 7-------------- 8--|-------- 8 8---------------- 8--|
B|---- 6-- 6-- 6---- 8-------- 8--|-------- 8 8------ 8--------11--|
G|---- 7-- 7-- 7---------- 7-- 9--|---- 9-- 9 9------ 9-------- 8--|
D|--------------------------------|--10--------------------10------|
A|--------------------------------|--------------------------------|
E| 7-------------- 7--------------| 8------------ 8----------------|
http://classicalguitartablature.blogspot.com/
E|---- 8---------------------- 7--|-------- 7-- 7------ 3------ 7--|
B|----11--11--11--10-- 8------ 0--|-------- 0-- 0-------------- 6--|
G|---- 8-- 8-- 8-- 8-- 8----------|------ 0 0-- 0-------------- 7--|
D|--------10--10--10------10------|---- 0------------------ 0------|
A| 8-------------- 8--------------|--------------------------------|
E|--------------------------------| 3-------------- 3--------------|
http://classicalguitartablature.blogspot.com/
E|-------- 7-- 7-------------- 8--|-------- 8 8---------------- 8--|
B|---- 6-- 6-- 6---- 8-------- 8--|-------- 8 8------ 8--------11--|
G|---- 7-- 7-- 7---------- 7-- 9--|---- 9-- 9 9------ 9-------- 8--|
D|--------------------------------|--10--------------------10------|
A|--------------------------------|--------------------------------|
E| 7-------------- 7--------------| 8------------ 8----------------|
http://classicalguitartablature.blogspot.com/
E|---- 8--------------------------|---------- 0------------ 5-- 3--|
B|----11--11--11--10-- 8------ 3--|---- 3-- 3-- 0-- 7-- 8------ 1--|
G|---- 8-- 8-- 8-- 8-- 8------ 0--|---- 0---------- 5---------- 0--|
D|--------10--10--10------10-- 0--|-------------- 7----------------|
A| 8-------------- 8--------------|-------------- 0----------------|
E|--------------------------------| 3------------------------------|
http://classicalguitartablature.blogspot.com/
E|---- 2-- 0----------------------|--------------------------------|
B|---- 1-- 1-- 3------------------|---- 3--------------------------|
G|------------ 4-------------- 2--| 4------ 4-- 2---------- 0-- 0--|
D|------------ 5------ 5-- 5------| 5------ 5-- 4------ 4----------|
A| 3-------------- 5--------------| 5-------------- 5--------------|
E|--------------------------------|--------------------------------|
http://classicalguitartablature.blogspot.com/
E|-------------------- 0-- 2-- 3--|------------ 0---------- 5-- 3--|
B|---------------- 3-- 3-- 3-- 3--|---- 3-- 3------ 7-- 8------ 1--|
G|-------- 0------ 0--------------|---- 0-- 0------ 5-- 5------ 0--|
D|---- 0-- 0-- 0------------------|---- 0-- 0------ 7-- 7----------|
A|--------------------------------|---------------- 0--------------|
E| 3-------------- 3--------------| 3------------------------------|
http://classicalguitartablature.blogspot.com/
E|---- 2-- 0----------------------|--------------------------------|
B|---- 1-- 1-- 3------------------|---- 3--------------------------|
G|------------ 4-------------- 2--| 4------ 4-- 2---------- 0-- 0--|
D|------------ 5------ 5-- 5------| 5------ 5-- 4------ 4----------|
A| 3-------------- 5--------------| 5-------------- 5--------------|
E|--------------------------------|--------------------------------|
http://classicalguitartablature.blogspot.com/
E|--------------------------------|-- 3----------------------------|
B|---------------------- 3--------|--------------------------------|
G|------------ 0------------------|--------------------------------|
D|------ 0------------------------|--------------------------------|
A|--------------------------------|--------------------------------|
E| 3------------------------------|--------------------------------|
http://classicalguitartablature.blogspot.com/
0 com

Video Killed The Radio Star (BASIC)

The Buggles' tune fingerstyle chord melody guitar BASIC arrangement played in the key of C.
Video Killed The Radio Star-The Buggles-BASIC Arrangement played in the key of C
http://classicalguitartablature.blogspot.com/
E|------ 1---- 5------------------|-------- 0-- 3------------------|
B|-- 1----------------------------|---- 1--------------------------|
G| 2------------------------------| 0------------------------------|
D| 3------------------------------| 2------------------------------|
A|--------------------------------|--------------------------------|
E| 1------------------------------| 0------------------------------|
http://classicalguitartablature.blogspot.com/
E|--------------------------------|--------------------------------|
B|------------ 6------------------| 1---------- 0------------------|
G|-------- 7----------------------| 0------ 0-------------- 2------|
D|---- 7--------------------------|---- 2--------------------------|
A| 5------------------------------| 3------------------------------|
E|--------------------------------|--------------------------------|
http://classicalguitartablature.blogspot.com/
http://classicalguitartablature.blogspot.com/
E|------ 1---- 5------------------|-------- 0-- 3------------------|
B|---- 1--------------------------|---- 1--------------------------|
G|---- 2--------------------------| 0------------------------------|
D| 3------------------------------| 2------------------------------|
A|--------------------------------|--------------------------------|
E| 1------------------------------| 0------------------------------|
http://classicalguitartablature.blogspot.com/
E|--------------------------------| 3------------------------------|
B|------------ 6------------------| 0------------------------------|
G|-------- 7-------------------- 0|--------------------------------|
D|---- 7--------------------------|--------------------------------|
A| 5------------------------------|--------------------------------|
E|------------------------------ 3|--------------------------------|
http://classicalguitartablature.blogspot.com/
E|--------------------------------|--------------------------------|
B|--------------------------------|---- 1-- 1-- 3 3---- 1-- 1-- 3--|
G|--------------------------------|---- 0-- 0------ 2-- 2------ 2--|
D|--------------------------------|---- 2-- 2------ 3-- 3-- 3------|
A|--------------------------------|--------------------------------|
E|--------------------------------| 0-------------- 1--------------|
http://classicalguitartablature.blogspot.com/
E|--------------------------------|--------------------------------|
B| 3-- 1-- 1-- 3-- 3---------- 3--|---- 1-- 1-- 3-- 3-- 1-- 1-- 3--|
G| 0-- 0-- 0-- 0-- 0------ 0------|-------- 0------ 2 2---- 2-- 2--|
D| 0-- 0-- 0-- 0-- 0-- 0----------|---- 2-- 2-- 2------ 3-- 3------|
A|--------------------------------|--------------------------------|
E| 3-------------- 3--------------| 0-------------- 1--------------|
http://classicalguitartablature.blogspot.com/
E|--------------------------------|--------------------------------|
B| 3-- 1-- 1-- 3-- 3---------- 3--|---- 1-- 1-- 0-- 0--------------|
G| 0-- 0-- 0-- 0-- 0---- 0--------|---- 0-- 0-- 0------ 2-- 2-- 2--|
D| 0-- 0-- 0-- 0-- 0-- 0----------|---- 2-- 2-- 0------ 3-- 3-- 3--|
A|--------------------------------|--------------------------------|
E| 3-------------- 3--------------| 0-------------- 1--------------|
http://classicalguitartablature.blogspot.com/
E|--------------------------------|-------- 8-- 5------------------|
B|--------------------------------| 8------ 8-- 6---------- 6-- 1--|
G| 2-- 0-- 0-- 2-- 0------ 0------| 5---------- 5---------- 5-- 0--|
D| 0-- 0-- 0-- 0-- 0-- 0------ 0--|---- 5-------------- 7----------|
A|--------------------------------|------------ 8------------------|
E| 3-------------- 3--------------| 0-------------------------- 3--|
http://classicalguitartablature.blogspot.com/
E|--------------------------------|--------------------------------|
B|------------ 1-- 0-- 1-- 3------|---- 1-- 1-- 3 3---- 1-- 1-- 3--|
G|-------- 0------ 0--------------|---- 0-- 0------ 2-- 2------ 2--|
D|---- 0---------- 0--------------|---- 2-- 2------ 3-- 3-- 3------|
A|--------------------------------|--------------------------------|
E|---------------- 3--------------| 0-------------- 1--------------|
http://classicalguitartablature.blogspot.com/
E|--------------------------------|--------------------------------|
B| 3-- 1-- 1-- 3-- 3---------- 3--|---- 1-- 1-- 3-- 3-- 1-- 1-- 3--|
G| 0-- 0-- 0-- 0-- 0------ 0------|-------- 0------ 2 2---- 2-- 2--|
D| 0-- 0-- 0-- 0-- 0-- 0----------|---- 2-- 2-- 2------ 3-- 3------|
A|--------------------------------|--------------------------------|
E| 3-------------- 3--------------| 0-------------- 1--------------|
http://classicalguitartablature.blogspot.com/
E|--------------------------------|--------------------------------|
B| 3-- 1-- 1-- 3-- 3---------- 3--|---- 1-- 1-- 0-- 0--------------|
G| 0-- 0-- 0-- 0-- 0---- 0--------|---- 0-- 0-- 0------ 2-- 2-- 2--|
D| 0-- 0-- 0-- 0-- 0-- 0----------|---- 2-- 2-- 0------ 3-- 3-- 3--|
A|--------------------------------|--------------------------------|
E| 3-------------- 3--------------| 0-------------- 1--------------|
http://classicalguitartablature.blogspot.com/
E|--------------------------------|-------- 8-- 5------------------|
B|--------------------------------| 8------ 8-- 6---------- 6------|
G| 2-- 0-- 0-- 2-- 0------ 0------| 5------------------ 5----------|
D| 0-- 0-- 0-- 0-- 0-- 0------ 0--|---- 5---------- 7--------------|
A|--------------------------------|------------ 8------------------|
E| 3-------------- 3--------------| 0-------------------------- 3--|
http://classicalguitartablature.blogspot.com/
E|---------------- 0--------------|-------- 8-- 5------------------|
B|---- 1-- 3-- 1-- 1------ 3-- 1--| 8------ 8-- 6---------- 6------|
G|---- 0-- 0-- 0------------------| 5------------------ 5----------|
D| 0------------------ 0----------|---- 5---------- 7--------------|
A|--------------------------------|------------ 8------------------|
E|---------------- 3--------------| 0-------------------------- 3--|
http://classicalguitartablature.blogspot.com/
E|---------------- 0--------------| 0-- 3-- 3------ 3------ 3-- 3--|
B|---- 1-- 3-- 1-- 1------ 3-- 1--| 1-- 1-- 1------ 1------ 1-- 1--|
G|---- 0-- 0-- 0------------------| 0-- 0-- 0------ 0------ 0-- 2--|
D| 0------------------ 0----------|--------------------------------|
A|--------------------------------| 3-- 3-- 3-- 3-- 3-- 3-- 3------|
E|---------------- 3--------------|---------------------------- 1--|
http://classicalguitartablature.blogspot.com/
E|---- 5-- 1------ 1--------------| 0-- 3-- 3------ 3------ 3-- 3--|
B|---- 1-- 1------ 1--------------| 1-- 1-- 1------ 1------ 1-- 1--|
G|---- 2---------- 2--------------| 0-- 0-- 0------ 0------ 0-- 2--|
D|--------------------------------|--------------------------------|
A|--------------------------------| 3-- 3-- 3-- 3-- 3-- 3-- 3------|
E| 1-- 1-- 1-- 1-- 1-- 1-- 1-- 1--|---------------------------- 1--|
http://classicalguitartablature.blogspot.com/
E|---- 5-- 1------ 1--------------| 0-- 0---------------------- 0--|
B|---- 1-- 1------ 1--------------| 1-- 1------ 3------ 3------ 1--|
G|---- 2---------- 2--------------| 0-- 0------ 0------ 0------ 2--|
D|--------------------------------|------------ 0------ 0----------|
A|--------------------------------| 3-- 3-- 3-- 2-- 2-- 2-- 2-- 0--|
E| 1-- 1-- 1-- 1-- 1-- 1-- 1-- 1--|--------------------------------|
http://classicalguitartablature.blogspot.com/
E|--------------------------------| 0-- 0---------------------- 0--|
B|---- 1------ 1---- 1------------| 1-- 1------ 3------ 3------ 1--|
G|---- 2------ 2------ 2----------| 0-- 0------ 0------ 0------ 2--|
D|---- 3------ 3------ 3----------|------------ 0------ 0---- 3----|
A| 0-- 0-- 0-- 0-- 0-- 0-- 0-- 0--| 3-- 3-- 3-- 2-- 2-- 2-- 2-- 0--|
E|--------------------------------|--------------------------------|
http://classicalguitartablature.blogspot.com/
E|--------------------------------|---------------------- 0--------|
B|---- 1------ 1------------------| 1---------- 1-- 1-- 3------ 1--|
G|---- 2------ 2------------------| 0---------- 0-- 0---------- 0--|
D|---- 3------ 3---------- 3------| 0---------- 0-- 0---------- 2--|
A| 0-- 0-- 0-- 0-- 0-- 0-- 0-- 0--|--------------------------------|
E|--------------------------------| 3---------- 3------------------|
http://classicalguitartablature.blogspot.com/
E|--------------------------------|------------------------ 0------|
B|------------ 1------ 1------ 1--| 1---------- 1-- 1-- 3-- 1-- 1--|
G|------------ 0------ 0------ 0--| 0---------- 0-- 0-- 0-- 0-- 0--|
D|------------ 2------ 2------ 2--| 0---------- 0-- 0-- 0------ 2--|
A| 0---------- 0------------------|--------------------------------|
E|--------------------------------| 3---------- 3------------------|
http://classicalguitartablature.blogspot.com/
E|--------------------------------|-------- 5-- 3------ 1------ 0--|
B|------------ 1------ 1----------|---- 1------ 3------ 0------ 1--|
G|------------ 0------ 0----------| 2------------------ 0------ 0--|
D|------------ 2------ 2-------- 3|--------------------------------|
A| 0---------- 0-------------- 0--|--------------------------------|
E|--------------------------------| 1---------- 3-------------- 0--|
http://classicalguitartablature.blogspot.com/
E|--------------------------------|-------- 5-- 3------ 1------ 0--|
B|---- 1--------------------------|---- 1------ 3------ 0------ 1--|
G|---- 0------ 2------ 2----------| 2------------------ 0------ 0--|
D|---- 2------ 3------ 3-------- 3|--------------------------------|
A|--------------------------------|--------------------------------|
E|------------ 1-------------- 1--| 1---------- 3-------------- 0--|
http://classicalguitartablature.blogspot.com/
E|---- 1 3------------------------|-------- 5-- 3------ 1----------|
B|------------ 1------------------|---- 1------ 3------ 0-------- 5|
G|------------ 2---- 2------------| 2------------------ 0------ 4--|
D|------------ 3---- 3---------- 3|---------------------------- 3--|
A|--------------------------------|--------------------------------|
E|------------ 1-------------- 1--| 1---------- 3-------------- 4--|
http://classicalguitartablature.blogspot.com/
E|--------------------------------|------ 1---- 5------------------|
B|---- 3------ 1------------------|---- 1--------------------------|
G|---- 4------ 2------------------|---- 2--------------------------|
D|---- 3------ 2------------------| 3------------------------------|
A|------------ 0------------------|--------------------------------|
E|--------------------------------| 1------------------------------|
http://classicalguitartablature.blogspot.com/
E|-------- 0-- 3------------------|--------------------------------|
B|---- 1--------------------------|------------ 6------------------|
G| 0------------------------------|-------- 7----------------------|
D| 2------------------------------|---- 7--------------------------|
A|--------------------------------| 5------------------------------|
E| 0------------------------------|--------------------------------|
http://classicalguitartablature.blogspot.com/
E|--------------------------------|--------------------------------|
B|--------------------------------|--------------------------------|
G| 0---------- 2---------- 2------|---- 2-------- 2-------- 0------|
D| 0---------- 2---------- 3------|---- 2-------- 3------ 0--------|
A|------------ 0------------------|---- 0--------------------------|
E| 3---------------------- 1------|-------------- 1-------- 3------|
http://classicalguitartablature.blogspot.com/
E| 0-- 3-- 3------ 3------ 3-- 3--|---- 5-- 1------ 1--------------|
B| 1-- 1-- 1------ 1------ 1-- 1--|---- 1-- 1------ 1--------------|
G| 0-- 0-- 0------ 0------ 0-- 2--|---- 2---------- 2--------------|
D|--------------------------------|--------------------------------|
A| 3-- 3-- 3-- 3-- 3-- 3-- 3------|--------------------------------|
E|---------------------------- 1--| 1-- 1-- 1-- 1-- 1-- 1-- 1-- 1--|
http://classicalguitartablature.blogspot.com/
E| 0-- 3-- 3------ 3------ 3-- 3--|---- 5-- 1------ 1--------------|
B| 1-- 1-- 1------ 1------ 1-- 1--|---- 1-- 1------ 1--------------|
G| 0-- 0-- 0------ 0------ 0-- 2--|---- 2---------- 2--------------|
D|--------------------------------|--------------------------------|
A| 3-- 3-- 3-- 3-- 3-- 3-- 3------|--------------------------------|
E|---------------------------- 1--| 1-- 1-- 1-- 1-- 1-- 1-- 1-- 1--|
http://classicalguitartablature.blogspot.com/
E| 0-- 0---------------------- 0--|--------------------------------|
B| 1-- 1------ 3------ 3------ 1--|---- 1------ 1---- 1------------|
G| 0-- 0------ 0------ 0------ 2--|---- 2------ 2------ 2----------|
D|------------ 0------ 0----------|---- 3------ 3------ 3----------|
A| 3-- 3-- 3-- 2-- 2-- 2-- 2-- 0--| 0-- 0-- 0-- 0-- 0-- 0-- 0-- 0--|
E|--------------------------------|--------------------------------|
http://classicalguitartablature.blogspot.com/
E| 0-- 0---------------------- 0--|--------------------------------|
B| 1-- 1------ 3------ 3------ 1--|---- 1------ 1------------------|
G| 0-- 0------ 0------ 0------ 2--|---- 2------ 2------------------|
D|------------ 0------ 0---- 3----|---- 3------ 3---------- 3------|
A| 3-- 3-- 3-- 2-- 2-- 2-- 2-- 0--| 0-- 0-- 0-- 0-- 0-- 0-- 0-- 0--|
E|--------------------------------|--------------------------------|
http://classicalguitartablature.blogspot.com/
E| 0-- 0---------------------- 0--|--------------------------------|
B| 1-- 1------ 3------ 3------ 1--|---- 1------ 1------------------|
G| 0-- 0------ 0------ 0------ 2--|---- 2------ 2------------------|
D|------------ 0------ 0---- 3----|---- 3------ 3---------- 3------|
A| 3-- 3-- 3-- 2-- 2-- 2-- 2-- 0--| 0-- 0-- 0-- 0-- 0-- 0-- 0-- 0--|
E|--------------------------------|--------------------------------|
http://classicalguitartablature.blogspot.com/
E| 0-- 0--------------------------| 0------------------------------|
B| 1-- 1------ 3------ 3----------| 1-- 1------ 1------------------|
G| 0-- 0------ 0------ 0----------| 2-- 2------ 2------------------|
D|------------ 2------ 2----------| 3-- 3------ 3------------------|
A|--------------------------------|--------------------------------|
E| 3-- 3-- 3-- 3-- 3-- 3-- 3-- 3--| 1-- 1------ 1------------------|
http://classicalguitartablature.blogspot.com/
0 com

Parachute (BASIC)

Cheryl Cole's tune fingerstyle chord melody guitar BASIC arrangement played in the key of Am.
Parachute-Cheryl Cole-BASIC Arrangement played in the key of Am
http://classicalguitartablature.blogspot.com/
E|--------------------------------|--------------------------------|
B| 1---------- 1------------------| 1---------- 1------------------|
G| 2---------- 2------------------| 2---------- 2------------------|
D| 2---------- 2------------------| 2---------- 2-------------- 2--|
A| 0---------- 0------------------| 0---------- 0------------------|
E|--------------------------------|--------------------------------|
http://classicalguitartablature.blogspot.com/
E|---- 3---- 1-- 0-- 0-- 0-- 0-- 0|-- 0-- 0---- 0 0----------------|
B|---- 1---- 1-- 1-- 1---- 1 1-- 1|-- 1-- 1---- 1 1---- 1 1--------|
G|---- 2---- 2-- 2-- 2---- 2-- 2 2|-- 2-- 2---- 2------------------|
D|--------------------------------|--------------------------------|
A| 0-------- 0--------------------| 0---------- 0------------------|
E|--------------------------------|--------------------------------|
http://classicalguitartablature.blogspot.com/
http://classicalguitartablature.blogspot.com/
E|---- 3---- 1-- 0-- 0-- 0---- 0--| 0 0---- 0-- 0-- 0--------------|
B|---- 1---- 1-- 1-- 1-- 1---- 1--| 1---------- 1------ 1-- 1------|
G|---- 2---- 2-- 2-- 2-- 2---- 2--| 2---------- 2------------------|
D|--------------------------------|--------------------------------|
A|--------------------------------|--------------------------------|
E| 1-------- 1--------------------| 1---------- 1------------------|
http://classicalguitartablature.blogspot.com/
E|---- 3---- 1-- 0---- 0 0-- 0----|---- 3---- 1---- 0-- 0-- 0-- 0--|
B|---- 1---- 1-- 1---- 1 1---- 1--|---- 1---- 1---- 1-- 1-- 1-- 1--|
G|---- 0---- 0-- 0---- 0 0---- 0--|---- 0---- 0---- 0-- 0-- 0-- 0--|
D|--------------------------------|--------------------------------|
A| 3-------- 3--------------------| 3-------- 3--------------------|
E|--------------------------------|--------------------------------|
http://classicalguitartablature.blogspot.com/
E|--------------------------------|--------------------------------|
B| 3-- 3-- 3-- 3-- 3-- 3-- 3-- 3--| 3-- 3-- 3-- 3 5----------------|
G| 0-- 0-- 0-- 0-- 0-- 0-- 0-- 0--| 4-- 4-- 4-- 4---------- 4------|
D| 0-- 0-- 0-- 0-- 0-- 0-- 0-- 0--| 3-- 3-- 3-- 3------------------|
A|--------------------------------|--------------------------------|
E| 3---------- 3------------------| 4---------- 4-------------- 4--|
http://classicalguitartablature.blogspot.com/
E|---- 3---- 1-- 0-- 0-- 0-- 0-- 0|-- 0-- 0---- 0 0----------------|
B|---- 1---- 1-- 1-- 1---- 1 1-- 1|-- 1-- 1---- 1 1---- 1 1--------|
G|---- 2---- 2-- 2-- 2---- 2-- 2 2|-- 2-- 2---- 2------------------|
D|--------------------------------|--------------------------------|
A| 0-------- 0--------------------| 0---------- 0------------------|
E|--------------------------------|--------------------------------|
http://classicalguitartablature.blogspot.com/
E|---- 3---- 1-- 0-- 0-- 0---- 0--| 0 0---- 0-- 0-- 0--------------|
B|---- 1---- 1-- 1-- 1-- 1---- 1--| 1---------- 1------ 1-- 1------|
G|---- 2---- 2-- 2-- 2-- 2---- 2--| 2---------- 2------------------|
D|--------------------------------|--------------------------------|
A|--------------------------------|--------------------------------|
E| 1-------- 1--------------------| 1---------- 1------------------|
http://classicalguitartablature.blogspot.com/
E|---- 3---- 1-- 0---- 0 0-- 0----|---- 3---- 1---- 0-- 0-- 0-- 0--|
B|---- 1---- 1-- 1---- 1 1---- 1--|---- 1---- 1---- 1-- 1-- 1-- 1--|
G|---- 0---- 0-- 0---- 0 0---- 0--|---- 0---- 0---- 0-- 0-- 0-- 0--|
D|--------------------------------|--------------------------------|
A| 3-------- 3--------------------| 3-------- 3--------------------|
E|--------------------------------|--------------------------------|
http://classicalguitartablature.blogspot.com/
E|--------------------------------|--------------------------------|
B| 3-- 3-- 3-- 3-- 3-- 3-- 3-- 3--| 3-- 3-- 3-- 3 5----------------|
G| 0-- 0-- 0-- 0-- 0-- 0-- 0-- 0--| 4-- 4-- 4-- 4---------- 4------|
D| 0-- 0-- 0-- 0-- 0-- 0-- 0-- 0--| 3-- 3-- 3-- 3------------------|
A|--------------------------------|--------------------------------|
E| 3---------- 3------------------| 4---------- 4-------------- 4--|
http://classicalguitartablature.blogspot.com/
E|------------------------ 5------| 0-- 0-- 0-- 0-- 0-- 0-- 0------|
B|--------------------------------| 1-- 1-- 1-- 1-- 1-- 1-- 1------|
G|--------------------------------| 2-- 2-- 2-- 2-- 2-- 2-- 2------|
D|--------------------------------|--------------------------------|
A| 7-- 7-- 5-- 5------------------| 0---------- 0------------------|
E|---------------- 8-- 8-- 7------|--------------------------------|
http://classicalguitartablature.blogspot.com/
E| 0-- 0-- 0-- 0-- 0-- 0-- 0 1----| 0-- 0-- 0-- 0-- 0-- 0-- 0 1----|
B| 1-- 1-- 1-- 1-- 1-- 1-- 1------| 1-- 1-- 1-- 1------ 1-- 1------|
G| 2-- 2-- 2-- 2-- 2-- 2-- 2------| 2-- 2-- 2------ 2-- 2-- 2------|
D|--------------------------------|--------------------------------|
A| 0---------- 0------------------|--------------------------------|
E|--------------------------------| 1---------- 1---------- 1------|
http://classicalguitartablature.blogspot.com/
E| 1-- 1-- 1-- 1-- 1-- 1-- 1 0----| 0-- 1-- 3-- 1------ 0----------|
B| 1-- 1-- 1-- 1---------- 1------| 1-- 1-- 1-- 1------ 1------ 1--|
G| 2-- 2-- 2-- 2---------- 2------| 0-- 0-- 0-- 0---------- 0------|
D|--------------------------------|--------------------------------|
A|--------------------------------| 3---------- 3------------------|
E| 1---------- 1---------- 1------|--------------------------------|
http://classicalguitartablature.blogspot.com/
E| 0-- 1-- 3-- 1---- 0-------- 0--|------------------------------ 3|
B| 1-- 1-- 1-- 1-------- 1---- 0--|---------- 3-------------- 3-- 5|
G| 0-- 0-- 0-- 0-------------- 0--|------ 0-------------- 0------ 4|
D|--------------------------------|---- 0------------ 0------------|
A| 3---------- 3------------------|--------------------------------|
E|--------------------------------| 3---------- 3---------------- 4|
http://classicalguitartablature.blogspot.com/
E|---------- 3---------- 3--------|-------- 0----------------------|
B|-- 5------ 5-- 5------ 5-- 5----|---------------- 3 1-- 0--------|
G|-- 4------ 4-- 4------ 4-- 4----| 2-------------------------- 2--|
D|-- 3---------- 3---------- 3----|---- 2--------------------------|
A|--------------------------------| 0---------- 0------------------|
E|---------- 4---------- 4--------|--------------------------------|
http://classicalguitartablature.blogspot.com/
E|------ 0------------------------|-------- 0----------------------|
B|-- 1------------ 3-- 1-- 0------|---------------- 3-- 1-- 0------|
G|-- 2----------------------------| 2-------------------------- 2--|
D|--------------------------------|---- 3--------------------------|
A| 0---------- 0------------------|--------------------------------|
E|--------------------------------| 1---------- 1------------------|
http://classicalguitartablature.blogspot.com/
E|-------- 0----------------------|-------- 0----------------------|
B|-- 1------------ 3-- 1-- 0------|---------------- 3 1---- 0------|
G|---- 2--------------------------| 0-------------------------- 0--|
D|--------------------------------|---- 2--------------------------|
A|--------------------------------| 3---------- 3------------------|
E| 1---------- 1------------------|--------------------------------|
http://classicalguitartablature.blogspot.com/
E|-------- 0----------------------|-------- 0----------------------|
B|-------------- 3---- 1-- 0------|---------------- 3-- 1-- 0------|
G|---- 0--------------------------| 0-------------------------- 1--|
D|--------------------------------|---- 0-------------------- 2----|
A| 3---------- 3------------------|--------------------------------|
E|--------------------------------| 3---------- 3------------------|
http://classicalguitartablature.blogspot.com/
E|------ 0------------------------| 0-- 0-- 0-- 0-- 0-- 0-- 0------|
B|---------------- 3-- 1-- 0------| 1-- 1-- 1-- 1-- 1-- 1-- 1------|
G|---- 1--------------------------| 2-- 2-- 2-- 2-- 2-- 2-- 2------|
D|--------------------------------|--------------------------------|
A|--------------------------------| 0---------- 0------------------|
E| 4---------- 4------------------|--------------------------------|
http://classicalguitartablature.blogspot.com/
E| 0-- 0-- 0-- 0-- 0-- 0-- 0 1----| 0-- 0-- 0-- 0-- 0-- 0-- 0 1----|
B| 1-- 1-- 1-- 1-- 1-- 1-- 1------| 1-- 1-- 1-- 1------ 1-- 1------|
G| 2-- 2-- 2-- 2-- 2-- 2-- 2------| 2-- 2-- 2------ 2-- 2-- 2------|
D|--------------------------------|--------------------------------|
A| 0---------- 0------------------|--------------------------------|
E|--------------------------------| 1---------- 1---------- 1------|
http://classicalguitartablature.blogspot.com/
E| 1-- 1-- 1-- 1-- 1-- 1-- 1 0----| 0-- 1-- 3-- 1------ 0----------|
B| 1-- 1-- 1-- 1---------- 1------| 1-- 1-- 1-- 1------ 1------ 1--|
G| 2-- 2-- 2-- 2---------- 2------| 0-- 0-- 0-- 0---------- 0------|
D|--------------------------------|--------------------------------|
A|--------------------------------| 3---------- 3------------------|
E| 1---------- 1---------- 1------|--------------------------------|
http://classicalguitartablature.blogspot.com/
E| 0-- 1-- 3-- 1---- 0-------- 0--|------------------------------ 3|
B| 1-- 1-- 1-- 1-------- 1---- 0--|---------- 3-------------- 3-- 5|
G| 0-- 0-- 0-- 0-------------- 0--|------ 0-------------- 0------ 4|
D|--------------------------------|---- 0------------ 0------------|
A| 3---------- 3------------------|--------------------------------|
E|--------------------------------| 3---------- 3---------------- 4|
http://classicalguitartablature.blogspot.com/
E|---------- 3---------- 3--------| 0-- 0-- 0-- 0-- 0-- 0-- 0------|
B|-- 5------ 5-- 5------ 5-- 5----| 1-- 1-- 1-- 1-- 1-- 1-- 1------|
G|-- 4------ 4-- 4------ 4-- 4----| 2-- 2-- 2-- 2-- 2-- 2-- 2------|
D|-- 3---------- 3---------- 3----|--------------------------------|
A|--------------------------------| 0---------- 0------------------|
E|---------- 4---------- 4--------|--------------------------------|
http://classicalguitartablature.blogspot.com/
E| 0-- 0-- 0-- 0-- 0-- 0-- 0 1----| 0-- 0-- 0-- 0-- 0-- 0-- 0 1----|
B| 1-- 1-- 1-- 1-- 1-- 1-- 1------| 1-- 1-- 1-- 1------ 1-- 1------|
G| 2-- 2-- 2-- 2-- 2-- 2-- 2------| 2-- 2-- 2------ 2-- 2-- 2------|
D|--------------------------------|--------------------------------|
A| 0---------- 0------------------|--------------------------------|
E|--------------------------------| 1---------- 1---------- 1------|
http://classicalguitartablature.blogspot.com/
E| 1-- 1-- 1-- 1-- 1-- 1-- 1 0----| 0-- 1-- 3-- 1------ 0----------|
B| 1-- 1-- 1-- 1---------- 1------| 1-- 1-- 1-- 1------ 1------ 1--|
G| 2-- 2-- 2-- 2---------- 2------| 0-- 0-- 0-- 0---------- 0------|
D|--------------------------------|--------------------------------|
A|--------------------------------| 3---------- 3------------------|
E| 1---------- 1---------- 1------|--------------------------------|
http://classicalguitartablature.blogspot.com/
E| 0-- 1-- 3-- 1---- 0-------- 0--|------------------------------ 3|
B| 1-- 1-- 1-- 1-------- 1---- 0--|---------- 3-------------- 3-- 5|
G| 0-- 0-- 0-- 0-------------- 0--|------ 0-------------- 0------ 4|
D|--------------------------------|---- 0------------ 0------------|
A| 3---------- 3------------------|--------------------------------|
E|--------------------------------| 3---------- 3---------------- 4|
http://classicalguitartablature.blogspot.com/
E|---------- 3---------- 3--------|-------------------- 5----------|
B|-- 5------ 5-- 5------ 5-- 5----|------------ 5------------------|
G|-- 4------ 4-- 4------ 4-- 4----| 2------ 2------------------ 2--|
D|-- 3---------- 3---------- 3----|-- 2-------------------- 2------|
A|--------------------------------| 0---------- 0------------------|
E|---------- 4---------- 4--------|--------------------------------|
http://classicalguitartablature.blogspot.com/
E|------------------ 5------------|-------------------- 1----------|
B|------------ 5------------------|--------------------------------|
G| 2------ 2------------------ 2--|------------ 2-------------- 2--|
D|---- 2------------------ 2------| 3------ 3-------------- 3------|
A| 0---------- 0------------------|--------------------------------|
E|--------------------------------| 1---------- 1------------------|
http://classicalguitartablature.blogspot.com/
E|-------------------- 1----------|-------------------- 8----------|
B|--------------------------------|------------ 8------------------|
G|------------ 2-------------- 2--| 5------ 5------------------ 5--|
D| 3------ 3-------------- 3------|---- 5------------------ 5------|
A|--------------------------------|--------------------------------|
E| 1---------- 1------------------| 8---------- 8------------------|
http://classicalguitartablature.blogspot.com/
E|-------------------- 8----------|-------------------- 3----------|
B|------------ 8------------------|------------ 3------------------|
G| 5------ 5------------------ 5--| 0------ 0------------------ 0--|
D|---- 5------------------ 5------|---- 0------------------ 0------|
A|--------------------------------|--------------------------------|
E| 8---------- 8------------------| 3---------- 3------------------|
http://classicalguitartablature.blogspot.com/
E|-------------------- 4----------|--------------------------------|
B|------------ 5------------------|--------------------------------|
G|------------ 4-------------- 4--|--------------------------------|
D| 6------ 6-------------- 6------|--------------------------------|
A|--------------------------------|--------------------------------|
E| 4---------- 4------------------|--------------------------------|
http://classicalguitartablature.blogspot.com/