To celebrate the anniversary, I am giving you (finally...) : iPhone LickByNeck !!!!!!
0 com

Aren't You Glad you Are You (BASIC)

Jazz tune fingerstyle chord melody guitar BASIC arrangement played in the key of F.
Aren't You Glad You're You - BASIC ARRANGEMENT played in the key of F.
http://classicalguitartablature.blogspot.com/
E|------10-------------- 3------ 1|--------------------------------|
B|11------------ 5-------------- 1|------------ 1-------------- 6--|
G|10------------ 3-------------- 0|------ 0-------------- 5--------|
D|----12------12------ 5------ 5--|---- 0-------------- 3----------|
A|10------------ 3----------------|---------------- 5--------------|
E|--------------------------------| 1---------------------------- 3|
http://classicalguitartablature.blogspot.com/
E|--------------------------------|---------------------- 5--------|
B|------------------------------ 1|------ 3------ 6-------------- 8|
G|------ 3-------------- 3------ 2|---------------- 5--------------|
D|---- 3------ 3------ 2------ 2--|---- 3------ 3------ 7------ 7--|
A|--------------------------------|--------------------------------|
E|---------------- 2------------ 1|---------------- 5------------ 6|
http://classicalguitartablature.blogspot.com/
http://classicalguitartablature.blogspot.com/
E|--------10------10------------12|------------10 8-------- 6---- 5|
B|---------------- 9---------- 910|-------------- 5----------------|
G|---- 7------ 7-- 7------ 7------|------ 9------ 5----------------|
D|-------------------- 9----------|---- 8-------------- 5------ 5--|
A|--------------------------------|-------------- 7----------------|
E|---------------- 7--------------| 8------------------------------|
http://classicalguitartablature.blogspot.com/
E|------------------------------12|----12----10-- 8-------------- 5|
B| 6------ 6------ 6------------10|----10----10-- 8------11------ 6|
G| 5------ 7------ 5---- 5------ 9|---- 9---- 9-- 9----------------|
D|---- 7-- 8-- 8------ 7------ 7--|-------------------- 8------ 8--|
A| 8-------------- 8--------------|--------------10----------------|
E|-------- 8----------------------| 8------------------------------|
http://classicalguitartablature.blogspot.com/
E|--------------------------------|------ 3-------------- 3--------|
B|------ 6------ 6-------------- 5|---------------- 3--------------|
G| 5-------------- 4---- 4------ 5|---------------- 4--------------|
D|---- 7------ 7-- 6-- 6------ 6--|---- 5------ 5------ 3------ 3--|
A| 8------------------------------|--------------------------------|
E|---------------- 4------------ 3|---------------- 3--------------|
http://classicalguitartablature.blogspot.com/
E|--------------------------------|---------------------- 5--------|
B| 1---------------------------- 1|------ 3------ 6-------------- 8|
G| 3------ 3------------ 3------ 2|---------------- 5--------------|
D|---- 3------ 3------ 2------ 2--|---- 3------ 3------ 7------ 7--|
A| 3-------------- 3--------------|--------------------------------|
E|------------------------------ 1|---------------- 5------------ 6|
http://classicalguitartablature.blogspot.com/
E|--------10------10------------12|------------10 9------ 7------ 5|
B|----------------12--------------|10------10---- 7------ 7------ 5|
G|---- 7------ 7--10------10------| 9-- 9-------- 7------ 7------ 6|
D|--------------------12------12--|-------------------- 7------ 7--|
A|----------------11--------------| 0-------------------- 7--------|
E|--------------------------------|-------------- 7-------------- 5|
http://classicalguitartablature.blogspot.com/
E|------------------------------12|----12----10-- 9------ 7------ 5|
B|------ 5------ 5-------------- 7|---- 7-------- 7-------------- 5|
G|-------------- 2------ 2------ 7|------ 7------ 7-------------- 6|
D|---- 6-------------- 2------ 2--|-------------------- 7------ 7--|
A|--------------------------------|--------------------------------|
E|-------------- 2-------------- 7|---------------- 0------------ 5|
http://classicalguitartablature.blogspot.com/
E|--------------------------------|-------- 9------------ 7--------|
B|------ 5------ 5----------------|10------------ 9-------------- 5|
G|-------------- 2------ 2--------| 7-------------- 7------------ 4|
D|---- 6-------------- 2------ 2--| 7-- 7------ 7-- 9-- 9------ 9--|
A|--------------------------------|---------------- 7--------------|
E|-------------- 2----------------| 7------------------------------|
http://classicalguitartablature.blogspot.com/
E| 5-------------- 8---------- 9--|10---- 8------10-------- 8----11|
B|---------------- 8--------------| 8------------ 8-------------- 8|
G|------ 4-------- 9---- 9--------| 8---------- 8------ 8------ 8 8|
D|---- 4------ 4------ 8----------|---- 8--------------------------|
A|--------------------------------|-------------- 8----------------|
E| 5-------------- 8--------------| 8---------------------------- 8|
http://classicalguitartablature.blogspot.com/
E|----------------------10--------| 8------ 6------ 8------ 6---- 9|
B|------------ 8-------- 8--------| 6-------------- 6--------------|
G|------ 8------------------------| 7-- 7------ 7-- 7-- 7------ 7--|
D|---- 8-------------- 8------ 8--|--------------------------------|
A|---------------- 8--------------|---------------- 8--------------|
E|--------------------------------| 6------------------------------|
http://classicalguitartablature.blogspot.com/
E|------------------------ 8------| 6------ 4---- 6------ 4--------|
B| 6---------- 6---------- 6------| 4------ 4---- 4-------- 4------|
G| 6------ 6---------- 6-- 6------| 5-- 5------ 5-- 5-- 5------ 5--|
D|---- 6-------------- 6------ 6--|--------------------------------|
A|---------------- 6--------------|---------------- 6--------------|
E| 6------------------------------| 4------------------------------|
http://classicalguitartablature.blogspot.com/
E| 8------------------------------|---- 810---- 8------ 5----------|
B|11----------------------------10|------------ 6------ 6 6------ 3|
G|10----10-------------- 9------ 9|------------ 5------------------|
D|---- 8------ 8------ 8------ 8--|---------------------------- 7--|
A|10---------------------------- 8|---------------- 5--------------|
E|---------------- 8--------------|--------------------------------|
http://classicalguitartablature.blogspot.com/
E|------ 3------------------------|---------------------- 5--------|
B|------------ 1---------------- 1|------ 3------ 6-------------- 8|
G| 3---------------------- 3---- 2|---------------- 5--------------|
D| 3-- 3-------------- 2------ 2--|---- 3------ 3------ 7------ 7--|
A|-------------- 3----------------|--------------------------------|
E| 3---------------------------- 1|---------------- 5------------ 6|
http://classicalguitartablature.blogspot.com/
E|--------10------10------------12|------------10 8-------- 6---- 5|
B|---------------- 9---------- 910|-------------- 5----------------|
G|---- 7------ 7-- 7------ 7------|------ 9------ 5----------------|
D|-------------------- 9----------|---- 8-------------- 5------ 5--|
A|--------------------------------|-------------- 7----------------|
E|---------------- 7--------------| 8------------------------------|
http://classicalguitartablature.blogspot.com/
E|------------------------------12|----12----10-- 8----------------|
B| 6------ 6------ 6------------10|----10----10-- 8------11--------|
G| 5------ 7------ 5---- 5------ 9|---- 9---- 9-- 9----------------|
D|---- 7-- 8-- 8------ 7------ 7--|-------------------- 8------ 8--|
A| 8-------------- 8--------------|--------------10----------------|
E|-------- 8----------------------| 8------------------------------|
http://classicalguitartablature.blogspot.com/
E|------10--------10--------------|------10-------------- 3------ 1|
B|10----10--------11--------------|11------------ 5-------------- 1|
G|---- 9------ 9--11------11------|10------------ 3-------------- 0|
D|--------------------10------10--|----12------12------ 5------ 5--|
A| 8------------------------------|10------------ 3----------------|
E|----------------10--------------|--------------------------------|
http://classicalguitartablature.blogspot.com/
E|--------------------------------|--------------------------------|
B|------------ 1-------------- 6--|--------------------------------|
G|------ 0-------------- 5--------|------ 3-------------- 3--------|
D|---- 0-------------- 3----------|---- 3------ 3------ 2------ 2--|
A|---------------- 5--------------|--------------------------------|
E| 1---------------------------- 3|---------------- 2------------ 1|
http://classicalguitartablature.blogspot.com/
E|--------------------------------|--------------------------------|
B|--------------------------------|--------------------------------|
G| 0------------------------------|--------------------------------|
D| 0------------------------------|--------------------------------|
A|--------------------------------|--------------------------------|
E|--------------------------------|--------------------------------|
http://classicalguitartablature.blogspot.com/
0 com

Angel Eyes (BASIC)

Jazz tune fingerstyle chord melody guitar BASIC arrangement played in the key of Dm.
Angel Eyes - BASIC ARRANGEMENT played in the key of Dm.
http://classicalguitartablature.blogspot.com/
E|--------------------------------|--------------------------------|
B|--------------------------------|--------------------------------|
G|-------- 2------------ 3--------|-------- 4-------------- 5------|
D|---- 3------ 3------ 3------ 3--|---- 3------ 3------ 3------ 3--|
A| 5-------------- 5------------ 5|---------------- 5--------------|
E|--------------------------------|--------------------------------|
http://classicalguitartablature.blogspot.com/
E|--------------------------------|--------------------------------|
B|--------------------------------|--------------------------------|
G|-------- 2-------------- 3------|------ 4-------------- 5--------|
D|---- 3------ 3------ 3------ 3--|---- 3------ 3------ 3------ 3--|
A| 5------------ 5----------------| 5-------------- 5--------------|
E|--------------------------------|--------------------------------|
http://classicalguitartablature.blogspot.com/
http://classicalguitartablature.blogspot.com/
E|-------- 5-- 4-------------- 3--|--------------------------------|
B|---- 3------ 6---------------- 6|-------- 6 3 6------------------|
G|---- 5------ 3-------- 3------ 4|-------- 4-- 5---------- 5------|
D|---- 3-------------- 3-------- 3|---- 3------ 6------ 6------ 6--|
A| 5-------------- 5------------ 5|---------------- 5------------ 5|
E|--------------------------------|--------------------------------|
http://classicalguitartablature.blogspot.com/
E|------------ 5--12--12--10------|--------------------------------|
B|------ 6--------10--10--10--10--|-------------------- 4------10--|
G|---- 7----------10--10--10-- 8--|---- 8------ 7------ 6------ 7--|
D|---- 7---------- 9----------10--|----10------ 7------ 5------ 9--|
A|--------------------------------| 8------------------------------|
E|--------------------------------|-------- 6------ 5------ 0------|
http://classicalguitartablature.blogspot.com/
E|-------- 5-- 4-------------- 3--|--------------------------------|
B|---- 3------ 6---------------- 6|---- 6-- 3-- 6---------------- 6|
G|---- 5------ 3-------- 3------ 4|---- 4-- 4-- 5-------- 5---- 7 7|
D|---- 3-------------- 3-------- 3|---- 3-- 3-- 6------ 6-------- 6|
A| 5-------------- 5--------------| 5-------------- 5--------------|
E|--------------------------------|--------------------------------|
http://classicalguitartablature.blogspot.com/
E|--------------------------------|--------------------------------|
B|-------- 6------ 6------ 6-- 3--|--------------------------------|
G|---- 7-- 7-- 7-- 5------ 6-- 5--|-------- 5---------- 7------ 6--|
D|---- 6------ 6------ 6-- 5-- 3--|---- 3------ 3---- 6------ 5----|
A|--------------------------------| 5------------------------------|
E| 0-------------- 6------ 5------|---------------- 6---- 5--------|
http://classicalguitartablature.blogspot.com/
E|-------- 5-- 4-------------- 3--|--------------------------------|
B|---- 3------ 6---------------- 6|-------- 6 3 6------------------|
G|---- 5------ 3-------- 3------ 4|-------- 4-- 5---------- 5------|
D|---- 3-------------- 3-------- 3|---- 3------ 6------ 6------ 6--|
A| 5-------------- 5------------ 5|---------------- 5------------ 5|
E|--------------------------------|--------------------------------|
http://classicalguitartablature.blogspot.com/
E|------------ 5--12--12--10------|--------------------------------|
B|------ 6--------10--10--10--10--|-------------------- 4------10--|
G|---- 7----------10--10--10-- 8--|---- 8------ 7------ 6------ 7--|
D|---- 7---------- 9----------10--|----10------ 7------ 5------ 9--|
A|--------------------------------| 8------------------------------|
E|--------------------------------|-------- 6------ 5------ 0------|
http://classicalguitartablature.blogspot.com/
E|-------- 5-- 4-------------- 3--|--------------------------------|
B|---- 3------ 6---------------- 6|---- 6-- 3-- 6---------------- 6|
G|---- 5------ 3-------- 3------ 4|---- 4-- 4-- 5-------- 5---- 7 7|
D|---- 3-------------- 3-------- 3|---- 3-- 3-- 6------ 6-------- 6|
A| 5-------------- 5--------------| 5-------------- 5--------------|
E|--------------------------------|--------------------------------|
http://classicalguitartablature.blogspot.com/
E|--------------------------------|----------------------10------10|
B|-------- 6------ 6------ 6-- 3--|---------------------- 9------ 8|
G|---- 7-- 7-- 7-- 5------ 6-- 5--|-------- 5----------10------10--|
D|---- 6------ 6------ 6-- 5-- 3--|---- 3------ 3------ 9----------|
A|------------------------------ 5|----------------10--------------|
E| 0-------------- 6------ 5------|--------------------------------|
http://classicalguitartablature.blogspot.com/
E|----10--------------10 8--------|--------------------------------|
B|---- 8-------------- 8 8---- 6--|---------------------------- 4--|
G| 8---------- 8------ 8 8---- 7--|------ 7---------------- 4------|
D|-------- 8------------------ 7--|---- 7------ 7------ 3----------|
A|-------------- 8----------------|--------------------------------|
E| 8------------------------------| 6------------ 3----------------|
http://classicalguitartablature.blogspot.com/
E|10--10----10 810------ 8--------|----------------------10------ 9|
B| 8-- 8---- 8 8 8------ 8---- 6--|---------------------- 8---- 8 7|
G| 8-------- 8 8 8------------ 7--|------ 7------------ 7----------|
D|-------- 8---------- 8------ 7--|---- 7------ 7------------------|
A|-------------- 8----------------|-------------- 6----------------|
E| 8---------------------------- 6|--------------------------------|
http://classicalguitartablature.blogspot.com/
E|-------------------- 7---- 9 7--|---------------------------- 2--|
B|------------ 7------ 7---- 7 7 5|---- 5---------- 5--------------|
G| 7---- 7------------ 7 7---- 7 6|---- 6------ 6-- 2------ 2------|
D|---- 7------------------------ 6|-------- 6---------- 4-------- 8|
A|-------------- 7----------------|---------------- 5------------ 6|
E| 7---------------------------- 5|--------------------------------|
http://classicalguitartablature.blogspot.com/
E|------------ 4-------- 4---- 5--|--------------------------------|
B| 9-- 9 9---- 5-------- 5---- 8--|------------ 8-------------- 6--|
G| 6-- 6 6---- 5-------------- 7--|------ 7-------------- 6--------|
D|---- 8 8------------ 4----------|-- 5---------------- 5----------|
A|--------------------------------|-------------- 0----------------|
E|-------------- 4-------------- 0|--------------------------------|
http://classicalguitartablature.blogspot.com/
E|-------- 5-- 4-------------- 3--|--------------------------------|
B|---- 3------ 6---------------- 6|-------- 6 3 6------------------|
G|---- 5------ 3-------- 3------ 4|-------- 4-- 5---------- 5------|
D|---- 3-------------- 3-------- 3|---- 3------ 6------ 6------ 6--|
A| 5-------------- 5------------ 5|---------------- 5------------ 5|
E|--------------------------------|--------------------------------|
http://classicalguitartablature.blogspot.com/
E|------------ 5--12--12--10------|--------------------------------|
B|------ 6--------10--10--10--10--|-------------------- 4------10--|
G|---- 7----------10--10--10-- 8--|---- 8------ 7------ 6------ 7--|
D|---- 7---------- 9----------10--|----10------ 7------ 5------ 9--|
A|--------------------------------| 8------------------------------|
E|--------------------------------|-------- 6------ 5------ 0------|
http://classicalguitartablature.blogspot.com/
E|-------- 5-- 4-------------- 3--|--------------------------------|
B|---- 3------ 6---------------- 6|---- 6-- 3-- 6---------------- 6|
G|---- 5------ 3-------- 3------ 4|---- 4-- 4-- 5-------- 5---- 7 7|
D|---- 3-------------- 3-------- 3|---- 3-- 3-- 6------ 6-------- 6|
A| 5-------------- 5--------------| 5-------------- 5--------------|
E|--------------------------------|--------------------------------|
http://classicalguitartablature.blogspot.com/
E|--------------------------------|--------------------------------|
B|-------- 6------ 6------ 6-- 3--|--------------------------------|
G|---- 7-- 7-- 7-- 5------ 6-- 5--|-------- 5-------------- 5------|
D|---- 6------ 6------ 6-- 5-- 3--|---- 3------ 3------ 3------ 3--|
A|--------------------------------| 5-------------- 3--------------|
E| 0-------------- 6------ 5------|--------------------------------|
http://classicalguitartablature.blogspot.com/
E| 1------ 1---- 8---- 5------ 5--|--------------------------------|
B| 3-- 3-- 3-- 3 6---- 6-- 8-- 6--|---------- 6-------------- 6----|
G| 1-- 1-- 1-- 1 6---- 6-- 6-- 5--|-------- 5------------ 5--------|
D|---- 3------ 3---------- 5------|---- 7------ 7------ 7------ 7--|
A| 1-------------- 0------------ 5|--------------------------------|
E|--------------------------------|---------------- 8--------------|
http://classicalguitartablature.blogspot.com/
E| 1------ 1---- 8---- 5------ 5--|--------------------------------|
B| 3-- 3-- 3-- 3 6---- 6-- 8-- 6--|--------------------------------|
G| 1-- 1-- 1-- 1 6---- 6-- 6-- 6--|--------------------------------|
D|---- 3------ 3---------- 5------|--------------------------------|
A| 1-------------- 0--------------| 5------------------------------|
E|--------------------------------|--------------------------------|
http://classicalguitartablature.blogspot.com/
0 com

Out Of Reach (BASIC)

Gabielle's tune fingerstyle chord melody guitar BASIC arrangement played in the key of C.
Out Of Reach-Gabrielle-BASIC Arrangement played in the key of C
http://classicalguitartablature.blogspot.com/
E|--------------------------------|--------------------------------|
B| 1-------------- 1-- 1----------| 1-------------- 1-- 1----------|
G| 0-------------- 0-- 0----------| 2-------------- 2-- 2----------|
D| 2-------------- 2-- 2----------| 2-------------- 2-- 2----------|
A| 3------------ 0 3-- 3----------| 0-------------- 0-- 0------ 0--|
E|---------- 3---------------- 3--|------------ 0 3----------------|
http://classicalguitartablature.blogspot.com/
E|--------------------------------|--------------------------------|
B| 0-------------- 0 0------------| 1------------------ 1-- 0-- 1--|
G| 0-------------- 0 0------------| 2---------- 2-------------- 0--|
D| 0-------------- 0 0------------| 3------ 3------------------ 2--|
A|--------------------------------|--------------------------------|
E| 3---------- 3-- 3-- 3------ 3--| 1------------------------------|
http://classicalguitartablature.blogspot.com/
http://classicalguitartablature.blogspot.com/
E|--------------------------------|---------------------------- 0--|
B|------ 1---- 1------ 1 0---- 1--|------ 1---- 1------ 3-- 1------|
G|------ 0---- 0------ 0------ 0--|------------ 0---------- 0------|
D|------ 2---- 2------ 2------ 2--|------ 2---- 2---------- 2------|
A| 3------------ 0 3 3------------| 0-------------- 0-- 0---- 0----|
E|------------ 3-------------- 3--|------------ 0 3----------------|
http://classicalguitartablature.blogspot.com/
E|--------------------------------|--------------------------------|
B|---- 0--------------------------|-------- 1---------- 1-- 0-- 1--|
G|-------------------- 0-- 2-- 2--|---- 2-- 2------------------ 0--|
D|--------------------------------| 3---------- 3-------------- 2--|
A|--------------------------------|--------------------------------|
E| 3---------- 3-- 3-- 3------ 3--| 1------------------------------|
http://classicalguitartablature.blogspot.com/
E|---------------------------- 0--|---------------------------- 0--|
B|------ 1---- 1------ 3-- 1------|------ 1---- 1------ 3-- 1------|
G|------ 0---- 0------------------|------ 0---- 0---------- 0------|
D|------------ 2------------------| 2---- 2---- 2---------- 2------|
A| 3------------ 0 3 3------------| 0-------------- 0-- 0---- 0----|
E|------------ 3-------------- 3--|------------ 0 3----------------|
http://classicalguitartablature.blogspot.com/
E|--------------------------------|--------------------------------|
B|---- 0-------------- 1 0--------|------------ 1------------------|
G|---------------------------- 0--|-- 2---------------- 2----------|
D|--------------------------------|-------- 3------------ 3--------|
A|--------------------------------|--------------------------------|
E| 3---------- 3-- 3-- 3------ 3--| 1------------------------------|
http://classicalguitartablature.blogspot.com/
E|--------------------------------|--------------------------------|
B|-------- 0-- 1------ 3----------|------ 0---------- 3------------|
G|---- 2-- 2-- 2------ 2------ 2--|------------ 5---------- 5------|
D|---- 2------------------ 2------|---- 4---------------------- 4--|
A| 0------------------------------| 5------------------------------|
E|--------------------------------|--------------------------------|
http://classicalguitartablature.blogspot.com/
E|---------------------------- 5--|---------------------------- 0--|
B|------ 1------ 1-- 1-------- 6--|---- 6-- 5---------- 3 5---- 1--|
G|-------- 2-- 2-------------- 5--|------------ 5-------------- 0--|
D|---- 3--------------------------|--------------------------------|
A|--------------------------------|--------------------------------|
E| 1------------------------------| 3------------------------------|
http://classicalguitartablature.blogspot.com/
E|-- 3-------- 3------ 1-- 0-- 0--|------ 0------------ 1 0-- 0----|
B|---- 1------ 1------ 1-- 1-- 1--|------ 1---- 1------ 1 1-- 0----|
G|---- 0------ 0---------- 0-- 0--|------------ 0---------- 0 0----|
D|--------------------------------|------------ 2------------------|
A| 3------------ 0 3-- 3----------| 0-------------- 0-- 0------ 0--|
E|------------ 3-------------- 3--|------------ 0------------------|
http://classicalguitartablature.blogspot.com/
E|-------------------- 0----------|-------------------- 1-- 0-- 0--|
B|---- 3---- 1-------- 0---- 3----|---- 1---- 1-------- 1-- 1-- 1--|
G|---- 0---- 0-------- 0---- 2----|---- 2---- 2-------- 2-- 2-- 0--|
D|---- 0---- 0---------------- 3--|---- 3------ 3------------------|
A|--------------------------------|--------------------------------|
E| 3---------- 3 3 3-- 3------ 3--| 1---------- 1-- 1-- 1------ 3--|
http://classicalguitartablature.blogspot.com/
E|---- 3------ 3------ 1-- 0-- 0--|-------------------- 1-- 0-- 0--|
B|---- 1------ 1------ 1-- 1-- 1--|------ 1---- 1------ 1-- 1-- 0--|
G|------------ 0---------- 0-- 0--|------ 0---- 0---------- 0-- 0--|
D|--------------------------------|------ 2---- 2------------------|
A| 3------------ 0 3-- 3----------| 0-------------- 0-- 0------ 0--|
E|------------ 3-------------- 3--|------------ 0------------------|
http://classicalguitartablature.blogspot.com/
E|-------------------- 0----------|---------------------------- 0--|
B|---- 3------ 1---- 0-------- 3--|---- 1-------------- 1-- 3-- 1--|
G|---- 0------ 0-------------- 2--|---- 2------ 2-------------- 0--|
D|---- 0------ 0-------------- 3--|---- 3-- 3----------------------|
A|--------------------------------|--------------------------------|
E| 3---------- 3 3 3-- 3------ 3--| 1---------- 1-- 1-- 1------ 3--|
http://classicalguitartablature.blogspot.com/
E|---------- 0-------------- 0----|---------- 0--------------------|
B|---- 1 3-- 1-------- 1 3-- 1----|---- 1 3---- 1------ 1-- 3-- 3--|
G|---- 0-- 0 0-------- 0-- 2 0----|---- 0 0---- 0------------ 0----|
D|---- 2-- 2---------- 2-- 2------|---- 2 2-------------------- 0--|
A| 3------------ 0 3-- 3----------| 0-------------- 0-- 0------ 0--|
E|------------ 3-------------- 3--|------------ 0------------------|
http://classicalguitartablature.blogspot.com/
E|-------------------- 0----------|--------------------------------|
B|-------------------- 3-- 3-- 3--|---- 1-------------- 0 1-- 1----|
G|------------------------ 0-- 0--|---- 2--------------------------|
D|------------------------ 0-- 0--|---- 3------ 3------------------|
A|--------------------------------|--------------------------------|
E| 3---------- 3 3 3-- 3------ 3--| 1---------- 1-- 1-- 1------ 3--|
http://classicalguitartablature.blogspot.com/
E|--------------------------------|--------------------------------|
B|-------- 0-- 1------ 3----------|------ 0---------- 3------------|
G|---- 2-- 2-- 2------ 2------ 2--|------------ 5---------- 5------|
D|---- 2------------------ 2------|---- 4---------------------- 4--|
A| 0------------------------------| 5------------------------------|
E|--------------------------------|--------------------------------|
http://classicalguitartablature.blogspot.com/
E|---------------------------- 5--|---------------------------- 0--|
B|------ 1------ 1-- 1-------- 6--|---- 6-- 5---------- 3 5---- 1--|
G|-------- 2-- 2-------------- 5--|------------ 5-------------- 0--|
D|---- 3--------------------------|--------------------------------|
A|--------------------------------|--------------------------------|
E| 1------------------------------| 3------------------------------|
http://classicalguitartablature.blogspot.com/
E|-- 3-------- 3------ 1-- 0-- 0--|------ 0------------ 1 0-- 0----|
B|---- 1------ 1------ 1-- 1-- 1--|------ 1---- 1------ 1 1-- 0----|
G|---- 0------ 0---------- 0-- 0--|------------ 0---------- 0 0----|
D|--------------------------------|------------ 2------------------|
A| 3------------ 0 3-- 3----------| 0-------------- 0-- 0------ 0--|
E|------------ 3-------------- 3--|------------ 0------------------|
http://classicalguitartablature.blogspot.com/
E|-------------------- 0----------|-------------------- 1-- 0-- 0--|
B|---- 3---- 1-------- 0---- 3----|---- 1---- 1-------- 1-- 1-- 1--|
G|---- 0---- 0-------- 0---- 2----|---- 2---- 2-------- 2-- 2-- 0--|
D|---- 0---- 0---------------- 3--|---- 3------ 3------------------|
A|--------------------------------|--------------------------------|
E| 3---------- 3 3 3-- 3------ 3--| 1---------- 1-- 1-- 1------ 3--|
http://classicalguitartablature.blogspot.com/
E|---- 3------------ 1---- 0-- 0--|------------------ 1-- 0---- 0--|
B|---- 1------ 1---- 1---- 1-- 1--|---- 1---- 1------ 1-- 1---- 0--|
G|---- 0------ 0---- 0---- 0-- 0--|---- 0---- 0------ 0-- 0---- 0--|
D|------------ 2------------------|---- 2------ 2------------ 0----|
A| 3------------ 0 3 3------------| 0-------------- 0-- 0---- 0----|
E|------------ 3-------------- 3--|------------ 0 3----------------|
http://classicalguitartablature.blogspot.com/
E|------------------ 0------------|--------------------------------|
B|-- 3------ 1---------------- 3--|---- 1--------------------------|
G|-- 0------ 0---------------- 2--|--------------------------------|
D|---- 0---- 0---------------- 3--|--------------------------------|
A|--------------------------------|--------------------------------|
E| 3---------- 3-- 3-- 3------ 3--| 1------------------------------|
http://classicalguitartablature.blogspot.com/
E|--------------------------------|--------------------------------|
B|---- 1--------------------------|--------------------------------|
G|---- 0--------------------------|--------------------------------|
D|-- 2----------------------------|--------------------------------|
A|-- 3----------------------------|--------------------------------|
E|--------------------------------|--------------------------------|
http://classicalguitartablature.blogspot.com/
0 com

Danny Boy (Intermediate)

Popular Irish tune fingerstyle chord melody guitar intermediate arrangement played in the key of C.
Danny Boy-Londonderry Air-Internediate Arrangement played in the key of C
http://classicalguitartablature.blogspot.com/
E|--------------------------------| 0------------------ 5-- 3------|
B|------------------------ 0 1 3--| 1-------- 3---- 5------ 5-- 5--|
G|------ 2------------ 2----------| 0---- 0-- 0---- 5---- 3---- 3--|
D|---- 3------ 3------ 3----------|---- 2-------- 4------------ 5 3|
A|--------------------------------| 3------ 2---- 0----------------|
E| 3------------------------------|---------------------- 3------ 1|
http://classicalguitartablature.blogspot.com/
E|--------------------------------|------------ 5------------------|
B| 3 1-------------------- 5-- 6--| 8-------------- 8-- 5---- 5-- 3|
G| 2---- 2---- 0------ 5-- 4------| 5---- 5 7------ 5------ 5------|
D|---------- 2-------- 3 3------ 5|---- 5-- 5---- 5-------- 5------|
A|-------------- 5------ 4--------|--------------------------------|
E|------ 0---------------------- 8|------ 7------ 5------ 3------ 2|
http://classicalguitartablature.blogspot.com/
http://classicalguitartablature.blogspot.com/
E|--------------------------------|-------------------- 5----------|
B|---------------------------- 3--| 5-------------- 5------ 8-- 5--|
G| 2-- 2------ 2------ 4 5---- 4--| 5---- 5-- 7---- 7------ 5------|
D|-- 0------ 0------ 5-- 4---- 3 5|---- 5-------- 5------ 5------ 3|
A|---------------- 7-- 6-- 5-- 4--|--------------------------------|
E|-------- 1-------------------- 8|-------- 7---- 6------ 5------ 4|
http://classicalguitartablature.blogspot.com/
E|--------------------------------| 0------------------------------|
B| 3---------------- 0------ 1 3--| 3---- 6---- 6-- 5-- 3-- 1-- 3--|
G| 5-- 5-- 2-- 2---- 2------ 1 1 3|------ 3---- 6-- 5------ 1-- 1--|
D|------ 2-- 2------ 2------ 3 3--|---- 2 5-- 5-- 3-------- 3-- 3--|
A|--------------------------------|-------- 6---- 5-------- 4-- 2--|
E|------ 3------ 2------ 1------ 0|--------------------------------|
http://classicalguitartablature.blogspot.com/
E|------------------ 3-------- 7--| 8---------- 7-- 7-------- 5----|
B| 1---------------- 1----10------| 8----------10-- 8--10-- 8------|
G| 0---- 0---- 2---- 1-- 7--------| 7---- 7-- 9-- 7---- 7-- 7------|
D|---- 2---- 3---------- 9--------|---- 7-------------- 9 5------ 5|
A| 3------ 0------ 1--------------|-------- 8---- 7----------------|
E|---------------------- 7------ 8|---------------------- 6------ 5|
http://classicalguitartablature.blogspot.com/
E|------------------ 3------ 5 7--| 8---------- 7-- 7-- 5----------|
B| 8-- 5------------ 1------ 5----| 9---- 9---- 8-- 6------ 8-- 5--|
G| 5------ 5------ 2-------- 5----| 7-- 7---- 7-- 5-------- 6-- 6--|
D|------------ 3------------------|---------------------- 5---- 5--|
A|------------------------------ 8|---------------------- 6--------|
E|------ 4-------- 3---- 2--------|-------- 6---- 5----------------|
http://classicalguitartablature.blogspot.com/
E|-------------------- 3-- 3-- 3--|12----------10--10---------- 8--|
B| 3------------------ 3-- 3-- 3--|13----------13--13--13----10----|
G| 5---- 5------ 3---- 2-- 2-- 213|----------------10--10---- 9----|
D|---- 3---- 5--------------------|----------10----12--12----------|
A| 5------ 4------ 3------ 2----13|--------12------11------10------|
E|--------------------------------|--------------------------------|
http://classicalguitartablature.blogspot.com/
E|-------- 8----------------------|-------- 5----------------------|
B| 8-- 5-- 8---------- 1-- 1-- 3--| 5------ 6 8-- 5 3-- 1------ 0--|
G| 9-- 6-- 7-- 6------ 2-- 3-- 2--| 7------ 6 5-- 4 4-- 2---- 2 0--|
D| 8-- 7-- 6-- 5-- 4-- 3-- 2-- 1--|---- 6---- 7-- 3 2-- 2---- 3 0--|
A| 9------------------------------|-------- 6 5-- 4 3------ 1---- 2|
E|---- 7-- 6-- 5-- 4-- 3-- 2-- 1--| 0------------------ 1----------|
http://classicalguitartablature.blogspot.com/
E|--------------------------------|---------- 5--------------------|
B| 1---------- 1------ 1---- 1-- 3| 5-------- 8 8-- 5-- 3---- 1----|
G| 0------ 0---------- 0---- 0-- 1| 5-------- 7 7-- 5-- 5---- 0----|
D| 2-- 2------------------------ 1| 5---- 5---- 5-- 5-- 3---- 2----|
A| 3-------------- 3------ 2---- 1|-------------------- 5----------|
E|--------------------------------| 5-------- 6 7-- 8-------- 0----|
http://classicalguitartablature.blogspot.com/
E|--------------------------------|--------------------------------|
B|-------- 0----------------------|---- 1--------------------------|
G| 2------ 2----------------------|---- 0--------------------------|
D| 3---- 2------------------------|-- 2----------------------------|
A|--------------------------------|--------------------------------|
E| 1---- 2------------------------|-- 3----------------------------|
http://classicalguitartablature.blogspot.com/
0 com

Almost Over You (BASIC)

Sheena Easton's tune fingerstyle chord melody guitar BASIC arrangement played in the key of G.
Almost Over You- Sheena Easton-BASIC ARRANGEMENT played in the key of G
http://classicalguitartablature.blogspot.com/
E|---------- 3 2-------------- 0--|--------------------------------|
B| 3---- 3------ 3------------ 0--|------ 1------ 4 3------------ 3|
G| 0---- 0------ 2---- 2----------|------ 0---- 0---- 5------ 2-- 0|
D|-- 0---- 0-------- 4------ 4----|---- 2---- 2-------- 5----------|
A|--------------------------------| 3------------ 3----------------|
E| 3------------ 3----------------|------------------------------ 3|
http://classicalguitartablature.blogspot.com/
E|---------- 3 2-------------- 5--| 3------------------------------|
B|------ 3------ 3----------------| 5------ 5---- 4 3--------------|
G|------ 0------ 2---- 2----------| 4------ 4---- 5-- 5------------|
D|---- 0------------ 4------ 4----|---- 5------ 5-------- 5--------|
A|--------------------------------| 3------------ 3----------------|
E|-------------- 3----------------|--------------------------------|
http://classicalguitartablature.blogspot.com/
http://classicalguitartablature.blogspot.com/
E|------------------ 3------ 3-- 3| 2 2-------- 2------------------|
B|---- 3 3-- 3 3---- 3------ 3-- 3| 3 3------ 5 3------------------|
G|---- 0 0-- 0 0---------------- 2| 2 2------ 2-------- 2----------|
D|------ 0-- 0 0-------- 0--------|------ 4---------- 4-- 4--------|
A|------------------------------ 2|-------------- 2------------ 2--|
E| 3------------ 3----------------|--------------------------------|
http://classicalguitartablature.blogspot.com/
E|-- 0-- 0------------------------|-------------- 0----------------|
B|---- 1 1-- 3-- 3-- 1------ 1-- 1|-- 1------ 3-- 3-- 3 3------ 3--|
G|---- 0-- 0 0-- 0-- 0-- 0--------| 0 0 0-------- 5-- 5 5------ 5--|
D|---------- 2-- 2---- 2-------- 2|-- 2-- 2------ 5-- 5 5-- 5------|
A| 3-------------- 0------------ 0|-------------- 5----------------|
E|--------------------------------|--------------------------------|
http://classicalguitartablature.blogspot.com/
E|------------------ 3------ 3-- 3| 2 2-------- 2------------------|
B|---- 3 3-- 3 3---- 3------ 3-- 3| 3 3------ 5 3------------------|
G|---- 0 0-- 0 0---------------- 2| 2 2------ 2-------- 2----------|
D|------ 0-- 0 0-------- 0--------|------ 4---------- 4-- 4--------|
A|------------------------------ 2|-------------- 2------------ 2--|
E| 3------------ 3----------------|--------------------------------|
http://classicalguitartablature.blogspot.com/
E|---- 0 0---------------------- 0|------ 2 3 5------------------ 3|
B|---- 1 1-- 3 3---- 1------ 1 3 1|---------- 5---------- 7-- 8-- 3|
G|---- 0 0-- 0 0-------- 0------ 0|---------- 5---------- 5-- 5-- 4|
D|---------- 2-- 2---- 2----------|-- 2-------------- 5------------|
A| 3------------ 0-------------- 3|-------------- 5----------------|
E|--------------------------------|------------------------------ 3|
http://classicalguitartablature.blogspot.com/
E|-- 7-------------- 3------ 0----|-------------------------- 3----|
B|---------- 3--------------------|------ 1-------- 1-------- 0-- 8|
G|---------- 0--------------------|---- 0---- 0------ 0---------- 5|
D|------ 5---------------- 0------|-- 2-------- 2------ 0-------- 5|
A|-------------- 2-------------- 3|-------------- 3------ 2--------|
E|--------------------------------|------------------------------ 5|
http://classicalguitartablature.blogspot.com/
E|-- 8----------------------------|--------------------------------|
B|------------------ 5------ 3----| 1 0-------------------------- 3|
G|---------- 5-------------- 0----|---------- 0------ 5------ 5----|
D|------ 5-- 5---------- 5-- 0----|------ 0---- 0---- 5-- 9--------|
A|-------------- 5----------------|-------------- 5----------------|
E|------------------------------ 3|------------------------------ 3|
http://classicalguitartablature.blogspot.com/
E|-------- 5-- 3------------------|-------- 5 5--------------------|
B|------------ 3---------- 0-- 3--|------------ 5-- 8 5-- 5-- 7-- 8|
G|---- 4------ 0---------- 0---- 7|---- 6------ 6---------------- 5|
D|-------------------- 0----------| 5---------------------------- 5|
A|------------ 2------------------|--------------------------------|
E|--------------------------------| 5---------- 5---------------- 5|
http://classicalguitartablature.blogspot.com/
E|-- 8-- 7------------------ 3----|--------------------------------|
B|---------- 5------ 7------ 3----|------ 3------------ 3----------|
G|---------- 5------ 5------ 0----|---- 0-- 0-- 0---- 0------ 2----|
D|---------- 5--------------------|-- 0------ 0---- 0------ 0-- 0--|
A|-------------- 5----------------|--------------------------------|
E|------------------------------ 3|-------------- 3------ 2--------|
http://classicalguitartablature.blogspot.com/
E|-- 3-- 3-- 2---------- 0-- 0----|-- 2-- 3-- 3------ 5-- 7------ 8|
B|-- 0-- 0-- 0-- 0-- 3-- 0-- 0----|---------- 0------ 0-- 0------ 5|
G|-- 0-- 0-- 0-- 0-- 0-- 0-- 0----|--------------------------------|
D|-------------- 2---- 2----------|------ 0------------------------|
A|--------------------------------|--------------------------------|
E| 0------------ 0----------------| 0-------------- 0------------ 8|
http://classicalguitartablature.blogspot.com/
E|-------------- 7----------------|-------------- 5----------------|
B|------ 5-------------- 5------ 8|------ 8------ 5------ 5--------|
G|-- 5------ 5-------- 5-- 5-- 5--|---- 5---- 5-- 5---- 5 5--------|
D| 5---------- 5---- 5------ 5----|-- 5-------- 5---- 5-------- 5--|
A|--------------------------------|-------------- 5---------- 5----|
E|-------------- 8-------------- 8|--------------------------------|
http://classicalguitartablature.blogspot.com/
E|-- 3-- 3-- 2---------- 0-- 0----|-- 2-- 3-- 3------ 5-- 7------ 7|
B|-- 0-- 0-- 0-- 0-- 3-- 0-- 0----|---------- 0------ 0-- 0------ 5|
G|-- 0-- 0-- 0-- 0-- 0-- 0-- 0----|------------------------------ 4|
D|-------------- 2---- 2----------|------ 0------------------------|
A|--------------------------------|------------------------------ 4|
E| 0------------ 0----------------| 0-------------- 0--------------|
http://classicalguitartablature.blogspot.com/
E|-------------- 4-------------- 9|--------------11-------------- 4|
B|------ 5------ 5------ 5------ 6|------ 6------11-------------- 4|
G|---- 4-- 4---------- 4---- 4-- 6|---- 6-- 6----12----12--1213-- 5|
D|-- 6------ 6------ 6-------- 6--|-- 6------ 6------11------------|
A|-------------- 4----------------|--------------------------------|
E|------------------------------ 6|--------------11----------------|
http://classicalguitartablature.blogspot.com/
E|-- 8----------------------------|--------------------------------|
B|---- 4------------ 9------ 6----|------ 6------------------ 9-- 9|
G|---------- 8--------------------|---- 5---- 5-------- 5---- 8-- 6|
D|------ 6--10----------10--------|-- 6-------- 6---- 6------ 6----|
A|------------------------------ 4|-------------- 4----------------|
E| 4-------------- 8--------------|---------------------- 8--------|
http://classicalguitartablature.blogspot.com/
E|-- 9----------------------------|--------------------------------|
B|------------------ 6------ 4----| 2 1-------- 1------ 6----------|
G|---------- 6------ 6------ 1----|-- 1------ 1-------------- 6----|
D| 6------ 6------------ 6--------|------ 1---------- 6--10------ 6|
A|---------------- 6--------------|-------------- 6----------------|
E| 6---------------------------- 4|------------------------------ 4|
http://classicalguitartablature.blogspot.com/
E|-------- 6----------------------|------ 8---- 6------------------|
B| 4-------- 9--------------------|------------ 6---- 9-- 6-- 8----|
G| 5-- 5------ 8---- 8------ 8-- 8|-- 7-------- 7---------------- 6|
D|------------10--------10--------| 6---------------------------- 6|
A|--------------------------------|--------------------------------|
E|------------ 8------------------| 6---------- 6---------------- 6|
http://classicalguitartablature.blogspot.com/
E|-- 9---------------------- 4----|--------------------------------|
B| 9---------- 6---- 8------ 4----|---------- 4--------------------|
G|------------ 6---- 6---- 6 5----|------ 5-------------- 5-- 6----|
D|-------- 6-- 6------------------|-- 6-------------------------- 6|
A|---------------- 6--------------|--------------------------------|
E|--------------------------------| 4------------ 4-------------- 4|
http://classicalguitartablature.blogspot.com/
E|-------- 6----------------------|------ 8---- 6------------------|
B| 4-------- 9--------------------|------------ 6---- 9-- 6-- 8----|
G| 5-- 5------ 8---- 8------ 8-- 8|-- 7-------- 7---------------- 6|
D|------------10--------10--------| 6---------------------------- 6|
A|--------------------------------|--------------------------------|
E|------------ 8------------------| 6---------- 6---------------- 6|
http://classicalguitartablature.blogspot.com/
E|-- 9------------------------ 4--|---------- 4 3-------------- 1--|
B| 9---------- 6---- 8-------- 1--|-------------- 4-------- 1------|
G|------------ 6---- 6---- 6-- 1--|------ 1------------ 3----------|
D|-------- 6-- 6------------------|-- 1-------------- 1------------|
A|---------------- 6--------------|-------------- 3-------------- 4|
E|------------------------------ 4|--------------------------------|
http://classicalguitartablature.blogspot.com/
E|--------------------------------|-------- 4-- 3---------- 6---- 4|
B|------ 2------ 5 4---------- 4--|------ 4------ 4----------------|
G|---- 1---- 1-- 6-- 6------ 3----|---- 1-------------- 3----------|
D|-- 3-------- 3-------- 6--------|-- 1-------------- 3------------|
A|---------------- 4--------------|-------------- 3----------------|
E|------------------------------ 4|--------------------------------|
http://classicalguitartablature.blogspot.com/
E|--------------------------------|--------------------------------|
B|-------- 6---------- 5 4--------|--------------------------------|
G|------ 5---- 5---- 6------ 6----|--------------------------------|
D|---- 6---------- 6 6---------- 6|--------------------------------|
A| 4---------------- 4------------|--------------------------------|
E|--------------------------------|--------------------------------|
http://classicalguitartablature.blogspot.com/
0 com

Straighten Up And Fly Right (BASIC)

Nat King Cole's tune fingerstyle chord melody guitar BASIC arrangement played in the key of C.
Straighten Up and Fly Right - Nat King Cole - BASIC ARRANGEMENT played in the key of C
http://classicalguitartablature.blogspot.com/
E|---- 0--------------------------|--------------------------------|
B| 4------ 1------ 1---------- 1--|---- 3------ 3---------------- 4|
G|------------ 2-------- 2---- 2--|---- 2------ 2-------- 2---- 0--|
D|---------------------------- 3--|---- 3------ 3------ 3----------|
A| 3------------------------------|------------------------------ 3|
E|-------------- 0----------------| 1-------------- 3--------------|
http://classicalguitartablature.blogspot.com/
E|---- 0--------------------------|--------------------------------|
B|------ 1------ 1------------ 1--|------------------------------ 4|
G|------------ 2-------- 2---- 2--|---- 2------ 2---------- 2-- 0--|
D|---------------------------- 3--|-------------------- 3----------|
A|--------------------------------|------------------------------ 3|
E|-------------- 0----------------| 1------------ 3----------------|
http://classicalguitartablature.blogspot.com/
http://classicalguitartablature.blogspot.com/
E|---- 0--------------------------|--------------------------------|
B|------ 1------ 1------------ 1--|---- 3------ 3---------------- 4|
G|------------ 2-------- 2---- 2--|---- 2------ 2-------- 2---- 0 0|
D|---------------------------- 3--|---- 3------ 3------ 3----------|
A|--------------------------------|--------------------------------|
E|-------------- 0----------------| 1-------------- 3------------ 3|
http://classicalguitartablature.blogspot.com/
E|---- 0-------------- 0----------|---- 0-------------- 0----------|
B|-------- 0---- 4-- 0---------- 4|-------------- 4-------------- 1|
G|---------- 0-- 0------------ 0--|------------ 0-------------- 0 0|
D| 3------------ 3----------------|-------------- 3-------------- 2|
A|--------------------------------|--------------------------------|
E|-------------- 3----------------| 3-------------- 3--------------|
http://classicalguitartablature.blogspot.com/
E|--------------------------------|--------------------------------|
B|---- 1-- 1-- 1 1---- 1 1---- 1--| 1-- 1------ 1-------------- 1--|
G|---- 0-- 0-- 0-- 0-- 0 0---- 0--| 2-- 2------ 2-------------- 2--|
D|---- 2 2---- 2 2---- 2 2---- 2--| 3-- 3------ 3-------------- 3--|
A| 3------------------------------|--------------------------------|
E|--------------------------------| 1------------------------------|
http://classicalguitartablature.blogspot.com/
E|------------------------------ 0|--------------------------------|
B|--------------------------------| 1-- 1------ 3---------------- 1|
G| 5-- 7-- 4-- 5------ 4 5---- 7--| 2-- 2------ 2-------------- 0 0|
D| 7------------ 7----------------|---- 3------ 3---------------- 2|
A| 5------------------------------|--------------------------------|
E|--------------------------------| 3------------------------------|
http://classicalguitartablature.blogspot.com/
E|--------------------------------|--------------------------------|
B|---- 1-- 1-- 1 1---- 1 1---- 1--| 1-- 1------ 1-------------- 1--|
G|---- 0-- 0-- 0-- 0-- 0 0---- 0--| 2-- 2------ 2-------------- 2--|
D|---- 2 2---- 2 2---- 2 2---- 2--| 3-- 3------ 3-------------- 3--|
A| 3------------------------------|--------------------------------|
E|--------------------------------| 1------------------------------|
http://classicalguitartablature.blogspot.com/
E|------------------------------ 0|--------------------------------|
B|--------------------------------| 1-- 1------ 3------------------|
G| 5-- 7-- 4-- 5------ 4 5---- 7--| 2-- 2------ 2-------------- 0--|
D| 7------------ 7----------------|---- 3------ 3------------------|
A| 5------------------------------|--------------------------------|
E|--------------------------------| 3------------------------------|
http://classicalguitartablature.blogspot.com/
E|--------------------------------|--------------------------------|
B|------------ 1 3------------ 1--|---- 3------ 1-------------- 1--|
G|---- 2-------- 2---- 2------ 2--|---- 2------ 2-------- 2--------|
D|---- 2-------------- 2------ 3--|---- 3------ 3------ 3----------|
A| 3------------------------------|--------------------------------|
E|-------------- 0-------------- 1|---------------- 3--------------|
http://classicalguitartablature.blogspot.com/
E|--------------------------------|--------------------------------|
B|------------ 1 3------------ 1--|---------------------------- 1--|
G|---- 2-------------- 2------ 2--|---- 2------ 2---------- 2------|
D|---- 2-------------- 2------ 3--|---- 3-------------- 3----------|
A| 3------------------------------|--------------------------------|
E|---------------- 0--------------| 1-------------- 3--------------|
http://classicalguitartablature.blogspot.com/
E|--------------------------------|--------------------------------|
B|------------ 1-- 3---------- 1--|---- 3------ 3-------------- 1--|
G|---- 2-------------- 2------ 2--|---- 2------ 2-------- 2--------|
D|---- 2-------------- 2------ 3--|---- 3------ 3------ 2----------|
A| 3------------------------------|--------------------------------|
E|---------------- 0--------------| 1-------------- 2--------------|
http://classicalguitartablature.blogspot.com/
E|--------------------------------| 0------------------------------|
B| 1-- 1-------------- 0-- 1-- 3--| 1-- 1------ 3------------------|
G| 2-- 2---------- 2--------------| 0---- 0---------------- 4------|
D| 3-- 3---------- 0--------------|---- 2-------------- 3------ 5--|
A|--------------------------------|---------------- 5--------------|
E| 3-------------- 1--------------| 0------------------------------|
http://classicalguitartablature.blogspot.com/
E|--------------------------------|--------------------------------|
B|------------ 1 3------------ 1--|---- 3------ 1-------------- 1--|
G|---- 2-------- 2---- 2------ 2--|---- 2------ 2-------- 2--------|
D|---- 2-------------- 2------ 3--|---- 3------ 3------ 3----------|
A| 3------------------------------|--------------------------------|
E|-------------- 0-------------- 1|---------------- 3--------------|
http://classicalguitartablature.blogspot.com/
E|--------------------------------|--------------------------------|
B|------------ 1 3------------ 1--|---------------------------- 1--|
G|---- 2-------------- 2------ 2--|---- 2------ 2---------- 2------|
D|---- 2-------------- 2------ 3--|---- 3-------------- 3----------|
A| 3------------------------------|--------------------------------|
E|---------------- 0--------------| 1-------------- 3--------------|
http://classicalguitartablature.blogspot.com/
E|--------------------------------|--------------------------------|
B|------------ 1-- 3---------- 1--|---- 3------ 3-------------- 1--|
G|---- 2-------------- 2------ 2--|---- 2------ 2-------- 2--------|
D|---- 2-------------- 2------ 3--|---- 3------ 3------ 2----------|
A| 3------------------------------|--------------------------------|
E|---------------- 0--------------| 1-------------- 2--------------|
http://classicalguitartablature.blogspot.com/
E|--------------------------------|--------------------------------|
B| 1-- 1-------------- 0-- 1-- 3--| 5------------ 1----------------|
G| 2-- 2---------- 2--------------| 5---------------------- 0------|
D| 3-- 3---------- 0--------------| 5-- 5-------------- 2------ 2--|
A|--------------------------------| 7-- 5---------- 3--------------|
E| 3-------------- 1--------------|--------------------------------|
http://classicalguitartablature.blogspot.com/
E| 0-- 0-- 0-- 0 0---- 0-- 0-- 0 0|---- 0------ 0-------------- 0--|
B| 3-- 3-- 3-- 3-- 3-- 3------ 3 3|---- 3------ 3-------------- 3--|
G| 1-- 1-- 1-- 1-- 1-- 1-- 1-- 1 1|---- 1------ 1-------------- 1--|
D|-------- 0-------------- 0------|------ 0-------------- 0--------|
A|---------------- 2--------------|---------------- 2--------------|
E| 0------------------------------| 0------------------------------|
http://classicalguitartablature.blogspot.com/
E| 0-- 0-- 0-- 0-- 0--------------| 0-------------------------- 0 0|
B| 2-- 2-- 2-- 2-- 2-- 2-- 2-- 3--| 2-- 2------ 0------------------|
G| 0-- 0-- 0-- 0-- 0-- 0-- 0-- 0--| 0------------------ 0----------|
D|-------- 2-------------- 2------|-------- 2------------ 2--------|
A| 0------------------------------| 0------------------------------|
E|---------------- 0--------------|---------------- 0--------------|
http://classicalguitartablature.blogspot.com/
E|---- 0 0---- 0 0---- 0 0---- 0 0|---- 0------ 0------------------|
B| 3-- 3-- 3-- 3 3---- 3 3------ 3|---- 3------ 3------ 3-------- 4|
G| 5-- 5-- 5-- 5 5---- 5 5---- 5 5|---- 5------ 5---------------- 4|
D|------ 4---------------- 4------|------------------------ 4---- 3|
A| 5------------------------------| 5------------------------------|
E|-------------- 5----------------|---------------- 5---------- 3--|
http://classicalguitartablature.blogspot.com/
E|------ 3---- 4-- 6-- 4-- 3------|--------------------------------|
B|---- 6---------------------- 6--| 5-- 3-- 5---- 5---- 3----------|
G|--------------------------------| 4-- 4-- 4---- 4---- 4----------|
D|--------------------------------| 3---- 3 3---- 3---- 3------ 5--|
A|--------------------------------| 4------------------------------|
E|--------------------------------|--------------------------------|
http://classicalguitartablature.blogspot.com/
E|--------------------------------|--------------------------------|
B|------------ 1 3------------ 1--|---- 3------ 1-------------- 1--|
G|---- 2-------- 2---- 2------ 2--|---- 2------ 2-------- 2--------|
D|---- 2-------------- 2------ 3--|---- 3------ 3------ 3----------|
A| 3------------------------------|--------------------------------|
E|-------------- 0-------------- 1|---------------- 3--------------|
http://classicalguitartablature.blogspot.com/
E|--------------------------------|--------------------------------|
B|------------ 1 3------------ 1--|---------------------------- 1--|
G|---- 2-------------- 2------ 2--|---- 2------ 2---------- 2------|
D|---- 2-------------- 2------ 3--|---- 3-------------- 3----------|
A| 3------------------------------|--------------------------------|
E|---------------- 0--------------| 1-------------- 3--------------|
http://classicalguitartablature.blogspot.com/
E|--------------------------------|--------------------------------|
B|------------ 1-- 3---------- 1--|---- 3------ 3-------------- 1--|
G|---- 2-------------- 2------ 2--|---- 2------ 2-------- 2--------|
D|---- 2-------------- 2------ 3--|---- 3------ 3------ 2----------|
A| 3------------------------------|--------------------------------|
E|---------------- 0--------------| 1-------------- 2--------------|
http://classicalguitartablature.blogspot.com/
E|--------------------------------|--------------------------------|
B| 1-- 1-------------- 0-- 1-- 3--| 5------------ 1----------------|
G| 2-- 2---------- 2--------------| 5---------------------- 0------|
D| 3-- 3---------- 0--------------| 5-- 5-------------- 2------ 2--|
A|--------------------------------| 7-- 5---------- 3--------------|
E| 3-------------- 1--------------|--------------------------------|
http://classicalguitartablature.blogspot.com/
E|--------------------------------|--------------------------------|
B| 1-- 1-------------- 0-- 1-- 3--| 5------------ 1----------------|
G| 2-- 2---------- 2--------------| 5---------------------- 0------|
D| 3-- 3---------- 0--------------| 5-- 5-------------- 2------ 2--|
A|--------------------------------| 7-- 5---------- 3--------------|
E| 3-------------- 1--------------|--------------------------------|
http://classicalguitartablature.blogspot.com/
E|--------------------------------| 0------------------------------|
B| 1-- 1-------------- 0-- 1-- 3--| 1-------------- 5--------------|
G| 2-- 2---------- 2--------------| 0-------------- 4--------------|
D| 3-- 3---------- 0--------------|---------------- 3--------------|
A|--------------------------------|---------------------- 5--------|
E| 3-------------- 1--------------|-------- 0----------------------|
http://classicalguitartablature.blogspot.com/
E|---- 8-- 7---- 5------ 4-- 3----|--------------------------------|
B| 1------------------------------|--------------------------------|
G| 0------------------------------|------ 2------------------------|
D| 2------------------------------|-------- 2----------------------|
A| 3------------------------------|-------- 3----------------------|
E|---- 8-- 0------ 1---- 2---- 3--|--------------------------------|
http://classicalguitartablature.blogspot.com/
0 com

Summer Wind (BASIC)

Frank Sinatra's tune fingerstyle chord melody guitar BASIC arrangement played in the key of C.
Summer Wind - Frank Sinatra - BASIC ARRANGEMENT played in the key of C
http://classicalguitartablature.blogspot.com/
E|--------------------------------|--------------------------------|
B| 3-- 3------------ 1 0---- 0 1 3|-------------- 0----------------|
G| 2---------- 2---- 2-- 2--------| 2------ 2------ 2------ 0------|
D| 1------ 1-------- 1------------|---- 1------ 1------ 1------ 1--|
A|---------------- 3--------------|---------------- 3--------------|
E| 1------------------------------| 1------------------------------|
http://classicalguitartablature.blogspot.com/
E|--------------------------------|--------------------------------|
B| 3-- 3------------ 1 0---- 0 1 3|-------------- 0----------------|
G| 2---------- 2---- 2-- 2--------| 2------ 2------ 2------ 0------|
D| 1------ 1-------- 1------------|---- 1------ 1------ 1------ 1--|
A|---------------- 3--------------|---------------- 3--------------|
E| 1------------------------------| 1------------------------------|
http://classicalguitartablature.blogspot.com/
http://classicalguitartablature.blogspot.com/
E|--------------------------------|------------ 5------------------|
B| 3-- 3-------- 1-- 1 0---- 0 1 3|---- 3---------- 3--------------|
G| 0---------- 0-------- 2------ 4|---- 4---------- 4------ 4------|
D| 2---- 2---------------------- 5|---- 5-- 5---------- 5------ 5--|
A| 3------------------------------| 3------------------------------|
E|-------------- 3----------------|---------------- 3--------------|
http://classicalguitartablature.blogspot.com/
E|--------------------------------|------------ 5------------------|
B| 3-- 3-------- 1-- 1 0---- 0 1 3|---- 3---------- 3------------ 5|
G| 0---------- 0-------- 2------ 4|---- 4---------- 4------ 4------|
D| 2---- 2---------------------- 5|---- 5-- 5---------- 5------ 5--|
A| 3------------------------------| 3------------------------------|
E|-------------- 3----------------|---------------- 3--------------|
http://classicalguitartablature.blogspot.com/
E|--------------------------------|--------------------------------|
B|-- 5 5---------------- 5--------| 5 5 5---------------- 5--------|
G| 4 4 4---------------- 4--------| 3 3 3--------------------------|
D| 5 5 5------ 5------ 5------ 5--| 5 5 5------ 5------ 5------ 5--|
A| 3------------------------------| 4------------------------------|
E|---------------- 3--------------|---------------- 3--------------|
http://classicalguitartablature.blogspot.com/
E|--------------------------------|--------------------------------|
B| 5---- 6---- 3------------------|--------------------------------|
G| 5-------------------- 5--------|-------- 4-------------- 4------|
D| 3-- 3-------------- 3------ 3--|---- 3------ 3------ 3------ 5--|
A| 5------------------------------|---------------- 5--------------|
E|---------------- 5--------------| 3------------------------------|
http://classicalguitartablature.blogspot.com/
E|--------------------------------|------------------------------ 3|
B| 6 6 6------------------------ 6|-------- 3-- 6-------- 6--------|
G| 5 5 5------ 5---------- 5---- 4|------------ 4------------------|
D| 3 3 3-------------- 3------ 5 3|---- 3-------------- 3------ 5--|
A| 5------------------------------|---------------- 5--------------|
E|---------------- 5--------------| 3------------------------------|
http://classicalguitartablature.blogspot.com/
E|--------------------------------|--------------------------------|
B| 5------ 6-- 5------------------|--------------------------------|
G| 4---------- 4---------- 4------|-------- 4------------ 5--------|
D|---- 5------ 5------ 5------ 5--|---- 5------ 5------ 5------ 5--|
A| 3------------------------------| 3------------------------------|
E|---------------- 3--------------|---------------- 3--------------|
http://classicalguitartablature.blogspot.com/
E| 3 3 3--------------------------| 3 3 3---------------- 5--------|
B| 3 3 3--------------------------| 3 3 3------ 3-------------- 5--|
G| 3 3 3------ 3-------- 5--------|-- 3 3-------------- 5----------|
D|-------------------- 3------ 3--|--------------------------------|
A|---------------- 5--------------| 3------------------------------|
E| 3------------------------------|---------------- 3--------------|
http://classicalguitartablature.blogspot.com/
E| 3---- 1------------ 1 0--------|--------------------------------|
B| 1------ 1---------- 1 1---- 3--|--------------------------------|
G| 2-- 2------ 2------ 2 2---- 5--|------ 5-------------- 5--------|
D|---------------------------- 6--|---- 6------ 6 3---- 3------ 3--|
A|-------------- 3----------------|--------------------------------|
E| 1------------------------------| 6-------------- 4--------------|
http://classicalguitartablature.blogspot.com/
E|------------ 3 3---- 1----------|-------------------- 3----------|
B|------------ 1 2---- 2----------|------ 5------------ 5 5--------|
G|------ 0---- 0-- 0---------- 0--|------ 5------------ 4 4--------|
D|---- 2------------------ 2------|---- 3------ 3-------- 3---- 3--|
A|---------------- 0--------------| 5------------------------------|
E| 3------------------------------|-------------- 3----------------|
http://classicalguitartablature.blogspot.com/
E|--------------------------------|--------------------------------|
B| 3 1 1------ 1-------- 3--------|-------- 8----------------------|
G| 0 0 0------ 0-------- 2--------|-------- 7-- 7-- 6-- 6------ 6--|
D| 2 2 2------ 2------ 1------ 1--|---- 8------ 6-- 5---------- 5--|
A| 3------------------------------|------------------------ 6------|
E|---------------- 1--------------| 0---------- 6-- 5--------------|
http://classicalguitartablature.blogspot.com/
E|------------ 3---- 3------------|-------------------- 3-- 0------|
B|-------- 5-- 5 6---- 6----------|------ 5------------ 0-- 0-- 0--|
G|-------- 5-- 5 5------ 5--------|------ 4------------ 0----------|
D|---- 3---------------------- 3--|---- 3------ 3------------------|
A| 5------------------------------|--------------------------------|
E|-------------- 4----------------| 3-------------- 1--------------|
http://classicalguitartablature.blogspot.com/
E|--------------------------------|--------------------------------|
B|------------ 1---------- 1------| 1-------------- 1--------------|
G| 7-- 5------ 1---------- 1------| 0-------------- 2--------------|
D| 5-- 7------ 3------ 3-- 3------| 2-------------- 2--------------|
A| 7-- 6------ 5---------- 4------| 3------------ 3----------------|
E|--------------------------------|--------------------------------|
http://classicalguitartablature.blogspot.com/
0 com

Put The Records On (BASIC)

Corinne Bailey Rae's tune fingerstyle chord melody guitar BASIC arrangement played in the key of A.
Put Your Records On-Corinne Bailey Rae-BASIC Arrangement played in the key of A.
http://classicalguitartablature.blogspot.com/
E|--------------------------------|--------------------------------|
B|--------------------------------| 2-- 2------ 2------------------|
G|--------------------------------| 2-- 2------ 2------------------|
D|--------------------------------| 1-- 1------ 1------------------|
A| 0-- 0------ 0------------------|--------------------------------|
E|--------------------------------| 2-- 2------ 2------------------|
http://classicalguitartablature.blogspot.com/
E| 9-- 9--------------------------|--------------------------------|
B| 7-- 7------ 7------------------|---- 2---- 2 2-- 2--------------|
G| 7-- 7------ 7------------------|---- 2---- 2 2-- 2--------------|
D|------------ 7------------------|---- 2---------- 2--------------|
A|--------------------------------| 0-------- 0---------------- 0--|
E| 0-- 0------ 0------------------|--------------------------------|
http://classicalguitartablature.blogspot.com/
http://classicalguitartablature.blogspot.com/
E|--------------------------------|--------------------------------|
B| 2-- 2------ 2------ 0----------|-------- 2------ 2------ 2------|
G| 2------ 2-- 2---------- 2------|---- 2 4---- 2 4---- 2 4---- 2--|
D| 1------------------------------|------------ 2-------------- 2--|
A|--------------------------------|--------------------------------|
E| 2---------- 2-------------- 2--| 0---------- 0------------------|
http://classicalguitartablature.blogspot.com/
E|--------------------------------|-------------- 2-- 4------ 2----|
B|--------------------------------|---- 2------ 5-- 2-- 2---- 2 5--|
G|------------ 2------ 2----------|---- 2------ 2-- 2-- 2---- 2----|
D|------------ 2------ 2----------|---- 2------ 2------------------|
A| 0-- 0------ 0-------------- 0--| 0---------- 0------------ 0----|
E|--------------------------------|--------------------------------|
http://classicalguitartablature.blogspot.com/
E| 2------------------------------|--------------------------------|
B| 2---------- 2------ 0----------|-------- 2------ 2------ 2------|
G| 2---------- 2------ 2----------|---- 2 4---- 2 4---- 2 4---- 2--|
D|---- 1------ 1------ 1----------|------------ 2-------------- 2--|
A|--------------------------------|--------------------------------|
E| 2---------- 2-------------- 2--| 0---------- 0------------------|
http://classicalguitartablature.blogspot.com/
E|--------------------------------|------ 4------------ 2----------|
B|--------------------------------|------ 2-------------------- 2--|
G|------------ 2------ 2----------|---------------------------- 2--|
D|------------ 2------ 2----------|---- 4------ 4-------------- 0--|
A| 0-- 0------ 0-------------- 0--|--------------------------------|
E|--------------------------------| 2-------------- 2--------------|
http://classicalguitartablature.blogspot.com/
E|--------------------------------|---- 7------ 5------------------|
B|---- 0---------------- 0--------|---- 5------ 5-- 7------ 5-- 2--|
G|-------------------------- 2----|---- 6---------- 6------ 6-- 2--|
D|------------ 0------ 0----------|-------- 7---------- 7----------|
A|--------------------------------|--------------------------------|
E| 1------------ 1----------------| 0-------------- 0--------------|
http://classicalguitartablature.blogspot.com/
E|--------------------------------|--------------------------------|
B|---- 0---------------- 0--------| 2------ 3-- 2---- 0-- 2--------|
G|---------------------------- 2--| 2------------------------------|
D|------------ 1------ 1----------| 4-- 4--------------------------|
A| 2-------------- 2------------ 5|--------------------------------|
E|--------------------------------|--------------------------------|
http://classicalguitartablature.blogspot.com/
E|--------------------------------|--------------------------------|
B|------------ 2---------- 2------| 2------ 3-- 2------ 0 2--------|
G|-------- 2------------------ 2--| 2---------- 2------------------|
D|---- 4-------------- 4-------- 3|---- 3------ 3------------------|
A| 5---------------------------- 5|--------------------------------|
E|--------------------------------|--------------------------------|
http://classicalguitartablature.blogspot.com/
E|------------------------------ 2|-------------------- 2-- 2------|
B|-------- 2---------- 0-- 2---- 2|-------- 5-- 2-- 5-- 2-- 2------|
G|---------------- 2--------------|-------- 2-- 2-- 2--------------|
D|------------ 4------------------|-------- 2----------------------|
A|--------------------------------| 0-- 0------ 0-------------- 0--|
E| 0------------------------------|--------------------------------|
http://classicalguitartablature.blogspot.com/
E|--------------------------------|---- 9-- 5-- 7------ 0-- 0------|
B|---- 2------------------ 2------|-- 7---- 7------ 7-- 5-- 5------|
G|---- 2---------- 2-- 4----------|---------------------------- 2 4|
D|---- 1-- 4-- 4------------------|---------------------------- 2--|
A|--------------------------------|--------------------------------|
E| 2-- 2------ 2-------------- 2--| 0-- 0------ 0------------------|
http://classicalguitartablature.blogspot.com/
E|------------------------------ 2|-------------------- 2-- 2------|
B|------------------------------ 2|-------- 5-- 2-- 5-- 2-- 2------|
G|-- 2---------------- 2----------|-------- 2-- 2-- 2--------------|
D|-- 2---------------- 2----------|-------- 2----------------------|
A| 0-- 0------ 0-------------- 0--| 0-- 0------ 0-------------- 0--|
E|--------------------------------|--------------------------------|
http://classicalguitartablature.blogspot.com/
E|--------------------------------|---- 9-- 5-- 7------ 0-- 0-- 7--|
B|---- 2------------------ 2------|-- 7---- 7------ 7-- 5-- 5-- 5--|
G|---- 2---------- 2-- 4----------|---------------------------- 6--|
D|---- 1-- 4-- 4------------------|--------------------------------|
A|--------------------------------|--------------------------------|
E| 2-- 2------ 2-------------- 2--| 0-- 0------ 0------------------|
http://classicalguitartablature.blogspot.com/
E|---- 5--------------------------|---- 2-- 0-- 2------------------|
B|---- 5-------------- 5----------| 2-------------- 2-- 0------ 0--|
G|-------------------- 6----------| 2---------------------- 2-- 2--|
D|--------------------------------| 4------------------------ 3----|
A| 0-- 0------ 0---------- 0---- 5|--------------------------------|
E|--------------------------------|--------------------------------|
http://classicalguitartablature.blogspot.com/
E|--------------------------------|--------------------------------|
B|-------------------- 0----------|---- 3-- 3---- 2 3 2------------|
G|---- 2---------- 2---------- 2--|---- 2-- 2------------ 4--------|
D|------ 3---- 3------------------|---------------------------- 4--|
A| 5------------------------------| 2------ 2------ 2------ 2------|
E|--------------------------------|--------------------------------|
http://classicalguitartablature.blogspot.com/
E|--------------------------------|--------------------------------|
B|-- 3-- 3---- 2 3-- 2 5----------|---- 2-- 2------ 2--------------|
G|------ 2------ 2----------------|------------ 4---- 4 2----------|
D|---------------------------- 4--|---------------------------- 4--|
A| 2------ 2------ 2------ 2------|--------------------------------|
E|--------------------------------| 2------ 2------ 2------ 2------|
http://classicalguitartablature.blogspot.com/
E|---- 2------ 2------ 2----------|--------------------------------|
B|-------- 2------ 2---- 0 2------|---- 3-- 3---- 2 3 2------------|
G|---------------------------- 4--|---- 2-- 2------------ 4--------|
D|--------------------------------|---------------------------- 4--|
A|--------------------------------| 2------ 2------ 2------ 2------|
E| 2------------------------------|--------------------------------|
http://classicalguitartablature.blogspot.com/
E|---------------- 2-- 4-- 5-- 7--| 9-------- 5--------------------|
B|---- 3 3---- 5-- 3--------------| 7---------- 7--10------ 7------|
G|------ 2-------- 2--------------| 6-------------- 7------ 7------|
D|--------------------------------|---------------- 7--------------|
A| 2------ 2------ 2------ 2---- 5|--------------------------------|
E|--------------------------------|---------------- 7--------------|
http://classicalguitartablature.blogspot.com/
E|---- 9------ 5-- 5 7------------| 9------ 7-- 5-- 7-- 9-- 5-- 5--|
B|---- 7-------- 7-------- 7-- 5--| 5------ 5-- 5-- 5------ 5-- 5--|
G| 6------------------------------| 6---------- 6------ 6-- 6-- 6--|
D|--------------------------------|--------------------------------|
A| 5------------------------------|--------------------------------|
E|--------------------------------| 5------------------------------|
http://classicalguitartablature.blogspot.com/
E|--------------------------------|---- 9-- 5-- 7------ 0-- 0------|
B|---- 2------------------ 2------|-- 7---- 7------ 7-- 5-- 5------|
G|---- 2---------- 2-- 4----------|---------------------------- 2 4|
D|---- 1-- 4-- 4------------------|---------------------------- 2--|
A|--------------------------------|--------------------------------|
E| 2-- 2------ 2-------------- 2--| 0-- 0------ 0------------------|
http://classicalguitartablature.blogspot.com/
E|------------------------------ 2|-------------------- 2-- 2------|
B|------------------------------ 2|-------- 5-- 2-- 5-- 2-- 2------|
G|-- 2---------------- 2----------|-------- 2-- 2-- 2--------------|
D|-- 2---------------- 2----------|-------- 2----------------------|
A| 0-- 0------ 0-------------- 0--| 0-- 0------ 0-------------- 0--|
E|--------------------------------|--------------------------------|
http://classicalguitartablature.blogspot.com/
E|--------------------------------|---- 9-- 5-- 7------ 0-- 0-- 7--|
B|---- 2------------------ 2------|-- 7---- 7------ 7-- 5-- 5-- 5--|
G|---- 2---------- 2-- 4----------|---------------------------- 6--|
D|---- 1-- 4-- 4------------------|--------------------------------|
A|--------------------------------|--------------------------------|
E| 2-- 2------ 2-------------- 2--| 0-- 0------ 0------------------|
http://classicalguitartablature.blogspot.com/
E|---- 5--------------------------|---- 2-- 0-- 2------------------|
B|---- 5-------------- 5----------| 2-------------- 2-- 0------ 0--|
G|-------------------- 6----------| 2---------------------- 2-- 2--|
D|--------------------------------| 4-------------------------- 3--|
A| 0-- 0------ 0---------- 0---- 5|--------------------------------|
E|--------------------------------|--------------------------------|
http://classicalguitartablature.blogspot.com/
E|--------------------------------|------------------------------ 4|
B|-------------------------- 0----|------------------------ 2------|
G|---- 2-------- 2----------------|-------- 2---------- 2----------|
D|---------- 3-------- 3----------|---------------- 2--------------|
A|--------------------------------|-------------- 0----------------|
E| 3------------------------------|--------------------------------|
http://classicalguitartablature.blogspot.com/
E|--------------------------------|--------------------------------|
B|--------------------------------|--------------------------------|
G|--------------------------------|--------------------------------|
D|--------------------------------|--------------------------------|
A|--------------------------------|--------------------------------|
E|--------------------------------|--------------------------------|
http://classicalguitartablature.blogspot.com/