To celebrate the anniversary, I am giving you (finally...) : iPhone LickByNeck !!!!!!

Ai No Corrida (BASIC)

Quincy Jones' tune fingerstyle chord melody guitar BASIC arrangement played in the key of Em.
Ai No Corrida-Quincy Jones-BASIC Arrangement played in the key of Em
http://classicalguitartablature.blogspot.com/
E|--------------------------------|--------------------------------|
B|--------------------------------|--------------------------------|
G|--------------------------------|--------------------------------|
D|--------------------------------|--------------------------------|
A| 5-- 7---------- 5-- 7----------|--------------------------------|
E|------------ 7---------------- 5|---- 5---- 5 5-- 7--------------|
http://classicalguitartablature.blogspot.com/
E|--------------------------------|--------------------------------|
B|--------------------------------|--------------------------------|
G|--------------------------------|--------------------------------|
D|--------------------------------|---------------------------- 9--|
A| 5-- 7---------- 5-- 7----------|--------------------------------|
E|------------ 7------------------| 5---- 5-- 5 5-- 7--------------|
http://classicalguitartablature.blogspot.com/
http://classicalguitartablature.blogspot.com/
E|--------------------------------|--------------------------------|
B|------------------------------ 5|-- 5-- 5-- 5 7 8---- 7----------|
G| 7-- 9---------- 7-- 9----------| 5 5-- 5-- 5 7---------- 9------|
D|---- 9------ 9------ 9----------| 5 5-- 5-- 5 7-------------- 9--|
A|--------------------------------|--------------------------------|
E| 0-------------- 0--------------| 5------------ 7----------------|
http://classicalguitartablature.blogspot.com/
E|--------------------------------|--------------------------------|
B|--------------------------------| 5 5-- 5-- 5-- 7-- 7------------|
G| 7-- 9---------- 7---- 9--------| 5 5-- 5-- 5-- 7------ 9---- 7--|
D| 9---- 9---- 9-- 9---- 9--------| 5 5-- 5-- 5-- 7----------------|
A|--------------------------------|--------------------------------|
E| 0-------------- 0--------------| 5------------ 7----------------|
http://classicalguitartablature.blogspot.com/
E| 0-------------- 2---- 5--------| 0---- 0-- 0-- 3---- 2-- 0------|
B| 0-------------- 3-------- 3----| 3 3-- 3-- 3 2------ 2------ 3--|
G| 0---------- 0-- 2--------------| 0 0-- 0-- 0-- 0---- 0----------|
D|------ 2------------------------|-- 0----------------------------|
A| 4-------------- 3--------------| 2-------------- 1--------------|
E|--------------------------------|--------------------------------|
http://classicalguitartablature.blogspot.com/
E|-------------------- 5------ 7--|--------------------------------|
B| 5---- 5---- 5-- 8------ 8-- 7--|------ 7---- 7------------------|
G| 5---- 5---------------- 5-- 8--|------ 8---- 8------------------|
D| 5---- 5---- 5---------- 5------|------ 7---- 7------ 7------ 9--|
A|--------------------------------|--------------------------------|
E| 5---------- 5---------- 5------| 7---------- 7------------------|
http://classicalguitartablature.blogspot.com/
E|--------------------------------|--------------------------------|
B|------------------------------ 5|-- 5-- 5-- 5 7 8---- 7----------|
G| 7-- 9---------- 7---- 9--------| 5 5-- 5-- 5 7---------- 9------|
D| 9---- 9---- 9-- 9---- 9--------| 5 5-- 5-- 5 7-------------- 9--|
A|--------------------------------|--------------------------------|
E| 0-------------- 0--------------| 5------------ 7----------------|
http://classicalguitartablature.blogspot.com/
E|--------------------------------|--------------------------------|
B|--------------------------------| 5 5-- 5-- 5-- 7-- 7------------|
G| 7-- 9---------- 7---- 9--------| 5 5-- 5-- 5-- 7------ 9---- 7--|
D| 9---- 9---- 9-- 9---- 9--------| 5 5-- 5-- 5-- 7----------------|
A|--------------------------------|--------------------------------|
E| 0-------------- 0--------------| 5------------ 7----------------|
http://classicalguitartablature.blogspot.com/
E| 0---------------------- 7-- 5--|------------------------ 5------|
B| 0---------- 0---------- 7-- 8--|------------------------ 5-- 8--|
G|------------ 0---------- 7-- 7--|---- 7-------------- 6-- 6-- 5--|
D|------ 2------------ 7----------|------------ 5------ 5------ 5--|
A| 4------------------------------|--------------------------------|
E|---------------- 8--------------| 7-------------- 6--------------|
http://classicalguitartablature.blogspot.com/
E|-------------------- 5------ 7--|--------------------------------|
B|---------------- 8------ 8-- 8--|---- 7 810 8 7------------------|
G|---- 5------ 5-------------- 8--|-------------- 9 7 9 7----------|
D|---- 5------ 5------------------|--------------------10-- 9------|
A|--------------------------------|--------------------------------|
E| 5-------------- 5--------------| 7------------------------------|
http://classicalguitartablature.blogspot.com/
E|-------- 3 0--------------------| 7------------------------------|
B|---- 0 3---- 3 0-- 0------------| 8------10-- 8--10-- 8----------|
G| 2-------------- 2-- 0----------| 7------ 7-- 7------ 7----------|
D| 1---------------------- 2------|---------------- 9-- 9------ 9--|
A| 2------------------------------|--------------------------------|
E|------------------------ 0------| 0---------- 0-- 0---------- 0--|
http://classicalguitartablature.blogspot.com/
E|---- 7------ 5------------------|---- 8------ 7------------------|
B|---- 5------ 5-------------- 5--|---- 7------ 8------ 8------10--|
G| 5---------- 5------ 5------ 5--| 7-- 7------ 7------ 7------ 7--|
D| 5------------------ 4------ 4--| 7------------------ 9------ 9--|
A|--------------------------------|------------ 7---------------- 7|
E| 5-------------- 2---------- 2--| 7------------------------------|
http://classicalguitartablature.blogspot.com/
E|------------ 7------------------| 7------------------------------|
B| 8--10 8--10 5------------------| 8------10-- 8--10-- 8----------|
G| 9-- 8 7-- 7 5------------------| 7------ 7-- 7------ 7----------|
D|10-- 9 9-- 9-------- 5----------|---------------- 9-- 9------ 9--|
A|--------------------------------|--------------------------------|
E| 8------ 7------ 5---------- 5--| 0---------- 0-- 0---------- 0--|
http://classicalguitartablature.blogspot.com/
E|---- 7------ 5------------------|---- 8------ 7------------------|
B|---- 5------ 5-------------- 5--|---- 7------ 8------ 8------10--|
G| 5---------- 5------ 5------ 5--| 7-- 7------ 7------ 7------ 7--|
D| 5------------------ 4------ 4--| 7------------------ 9------ 9--|
A|--------------------------------|------------ 7---------------- 7|
E| 5-------------- 2---------- 2--| 7------------------------------|
http://classicalguitartablature.blogspot.com/
E|------------ 7------------------|--------------------------------|
B| 8--10 8--10 5------------------|---- 5---------- 8--10-- 8 7-- 8|
G| 9-- 8 7-- 7 5------------------|---- 5---------- 9-- 9-- 7------|
D|10-- 9 9-- 9-------- 5----------|---- 5----------10--10-- 7------|
A|--------------------------------|-------------------------- 7----|
E| 8------ 7------ 5---------- 5--| 5---------- 5-- 8--10----------|
http://classicalguitartablature.blogspot.com/
E|---------- 5--------------------|---- 5---------------------- 5--|
B| 7------ 8---- 8---- 5------ 5--| 8------ 8-- 5------ 5-- 8------|
G|---- 9------------------ 7------|---------------- 7--------------|
D|--------------------------------|--------------------------------|
A|---------------- 5-- 7----------|--------------------------------|
E|---------- 7--------------------| 5-- 5---- 5 5-- 7--------------|
http://classicalguitartablature.blogspot.com/
E|-------------------- 5----------|------------ 5------------------|
B| 8-- 5------ 5-- 8------ 8-- 5--|---- 5-- 8------ 8-- 5----------|
G|-------- 7----------------------| 7------------------------------|
D|--------------------------------|--------------------------------|
A| 5-- 7---------- 5-- 7----------|--------------------------------|
E|------------ 7------------------| 5---- 5-- 5 5-- 7---------- 7--|
http://classicalguitartablature.blogspot.com/
E|--------------------------------|--------------------------------|
B|--------------------------------|--------------------------------|
G|--------------------------------|--------------------------------|
D|--------------------------------|--------------------------------|
A| 5---- 7------------------------|--------------------------------|
E|--------------------------------|--------------------------------|
http://classicalguitartablature.blogspot.com/

0 ความคิดเห็น:

แสดงความคิดเห็น