To celebrate the anniversary, I am giving you (finally...) : iPhone LickByNeck !!!!!!

Almost Over You (BASIC)

Sheena Easton's tune fingerstyle chord melody guitar BASIC arrangement played in the key of G.
Almost Over You- Sheena Easton-BASIC ARRANGEMENT played in the key of G
http://classicalguitartablature.blogspot.com/
E|---------- 3 2-------------- 0--|--------------------------------|
B| 3---- 3------ 3------------ 0--|------ 1------ 4 3------------ 3|
G| 0---- 0------ 2---- 2----------|------ 0---- 0---- 5------ 2-- 0|
D|-- 0---- 0-------- 4------ 4----|---- 2---- 2-------- 5----------|
A|--------------------------------| 3------------ 3----------------|
E| 3------------ 3----------------|------------------------------ 3|
http://classicalguitartablature.blogspot.com/
E|---------- 3 2-------------- 5--| 3------------------------------|
B|------ 3------ 3----------------| 5------ 5---- 4 3--------------|
G|------ 0------ 2---- 2----------| 4------ 4---- 5-- 5------------|
D|---- 0------------ 4------ 4----|---- 5------ 5-------- 5--------|
A|--------------------------------| 3------------ 3----------------|
E|-------------- 3----------------|--------------------------------|
http://classicalguitartablature.blogspot.com/
http://classicalguitartablature.blogspot.com/
E|------------------ 3------ 3-- 3| 2 2-------- 2------------------|
B|---- 3 3-- 3 3---- 3------ 3-- 3| 3 3------ 5 3------------------|
G|---- 0 0-- 0 0---------------- 2| 2 2------ 2-------- 2----------|
D|------ 0-- 0 0-------- 0--------|------ 4---------- 4-- 4--------|
A|------------------------------ 2|-------------- 2------------ 2--|
E| 3------------ 3----------------|--------------------------------|
http://classicalguitartablature.blogspot.com/
E|-- 0-- 0------------------------|-------------- 0----------------|
B|---- 1 1-- 3-- 3-- 1------ 1-- 1|-- 1------ 3-- 3-- 3 3------ 3--|
G|---- 0-- 0 0-- 0-- 0-- 0--------| 0 0 0-------- 5-- 5 5------ 5--|
D|---------- 2-- 2---- 2-------- 2|-- 2-- 2------ 5-- 5 5-- 5------|
A| 3-------------- 0------------ 0|-------------- 5----------------|
E|--------------------------------|--------------------------------|
http://classicalguitartablature.blogspot.com/
E|------------------ 3------ 3-- 3| 2 2-------- 2------------------|
B|---- 3 3-- 3 3---- 3------ 3-- 3| 3 3------ 5 3------------------|
G|---- 0 0-- 0 0---------------- 2| 2 2------ 2-------- 2----------|
D|------ 0-- 0 0-------- 0--------|------ 4---------- 4-- 4--------|
A|------------------------------ 2|-------------- 2------------ 2--|
E| 3------------ 3----------------|--------------------------------|
http://classicalguitartablature.blogspot.com/
E|---- 0 0---------------------- 0|------ 2 3 5------------------ 3|
B|---- 1 1-- 3 3---- 1------ 1 3 1|---------- 5---------- 7-- 8-- 3|
G|---- 0 0-- 0 0-------- 0------ 0|---------- 5---------- 5-- 5-- 4|
D|---------- 2-- 2---- 2----------|-- 2-------------- 5------------|
A| 3------------ 0-------------- 3|-------------- 5----------------|
E|--------------------------------|------------------------------ 3|
http://classicalguitartablature.blogspot.com/
E|-- 7-------------- 3------ 0----|-------------------------- 3----|
B|---------- 3--------------------|------ 1-------- 1-------- 0-- 8|
G|---------- 0--------------------|---- 0---- 0------ 0---------- 5|
D|------ 5---------------- 0------|-- 2-------- 2------ 0-------- 5|
A|-------------- 2-------------- 3|-------------- 3------ 2--------|
E|--------------------------------|------------------------------ 5|
http://classicalguitartablature.blogspot.com/
E|-- 8----------------------------|--------------------------------|
B|------------------ 5------ 3----| 1 0-------------------------- 3|
G|---------- 5-------------- 0----|---------- 0------ 5------ 5----|
D|------ 5-- 5---------- 5-- 0----|------ 0---- 0---- 5-- 9--------|
A|-------------- 5----------------|-------------- 5----------------|
E|------------------------------ 3|------------------------------ 3|
http://classicalguitartablature.blogspot.com/
E|-------- 5-- 3------------------|-------- 5 5--------------------|
B|------------ 3---------- 0-- 3--|------------ 5-- 8 5-- 5-- 7-- 8|
G|---- 4------ 0---------- 0---- 7|---- 6------ 6---------------- 5|
D|-------------------- 0----------| 5---------------------------- 5|
A|------------ 2------------------|--------------------------------|
E|--------------------------------| 5---------- 5---------------- 5|
http://classicalguitartablature.blogspot.com/
E|-- 8-- 7------------------ 3----|--------------------------------|
B|---------- 5------ 7------ 3----|------ 3------------ 3----------|
G|---------- 5------ 5------ 0----|---- 0-- 0-- 0---- 0------ 2----|
D|---------- 5--------------------|-- 0------ 0---- 0------ 0-- 0--|
A|-------------- 5----------------|--------------------------------|
E|------------------------------ 3|-------------- 3------ 2--------|
http://classicalguitartablature.blogspot.com/
E|-- 3-- 3-- 2---------- 0-- 0----|-- 2-- 3-- 3------ 5-- 7------ 8|
B|-- 0-- 0-- 0-- 0-- 3-- 0-- 0----|---------- 0------ 0-- 0------ 5|
G|-- 0-- 0-- 0-- 0-- 0-- 0-- 0----|--------------------------------|
D|-------------- 2---- 2----------|------ 0------------------------|
A|--------------------------------|--------------------------------|
E| 0------------ 0----------------| 0-------------- 0------------ 8|
http://classicalguitartablature.blogspot.com/
E|-------------- 7----------------|-------------- 5----------------|
B|------ 5-------------- 5------ 8|------ 8------ 5------ 5--------|
G|-- 5------ 5-------- 5-- 5-- 5--|---- 5---- 5-- 5---- 5 5--------|
D| 5---------- 5---- 5------ 5----|-- 5-------- 5---- 5-------- 5--|
A|--------------------------------|-------------- 5---------- 5----|
E|-------------- 8-------------- 8|--------------------------------|
http://classicalguitartablature.blogspot.com/
E|-- 3-- 3-- 2---------- 0-- 0----|-- 2-- 3-- 3------ 5-- 7------ 7|
B|-- 0-- 0-- 0-- 0-- 3-- 0-- 0----|---------- 0------ 0-- 0------ 5|
G|-- 0-- 0-- 0-- 0-- 0-- 0-- 0----|------------------------------ 4|
D|-------------- 2---- 2----------|------ 0------------------------|
A|--------------------------------|------------------------------ 4|
E| 0------------ 0----------------| 0-------------- 0--------------|
http://classicalguitartablature.blogspot.com/
E|-------------- 4-------------- 9|--------------11-------------- 4|
B|------ 5------ 5------ 5------ 6|------ 6------11-------------- 4|
G|---- 4-- 4---------- 4---- 4-- 6|---- 6-- 6----12----12--1213-- 5|
D|-- 6------ 6------ 6-------- 6--|-- 6------ 6------11------------|
A|-------------- 4----------------|--------------------------------|
E|------------------------------ 6|--------------11----------------|
http://classicalguitartablature.blogspot.com/
E|-- 8----------------------------|--------------------------------|
B|---- 4------------ 9------ 6----|------ 6------------------ 9-- 9|
G|---------- 8--------------------|---- 5---- 5-------- 5---- 8-- 6|
D|------ 6--10----------10--------|-- 6-------- 6---- 6------ 6----|
A|------------------------------ 4|-------------- 4----------------|
E| 4-------------- 8--------------|---------------------- 8--------|
http://classicalguitartablature.blogspot.com/
E|-- 9----------------------------|--------------------------------|
B|------------------ 6------ 4----| 2 1-------- 1------ 6----------|
G|---------- 6------ 6------ 1----|-- 1------ 1-------------- 6----|
D| 6------ 6------------ 6--------|------ 1---------- 6--10------ 6|
A|---------------- 6--------------|-------------- 6----------------|
E| 6---------------------------- 4|------------------------------ 4|
http://classicalguitartablature.blogspot.com/
E|-------- 6----------------------|------ 8---- 6------------------|
B| 4-------- 9--------------------|------------ 6---- 9-- 6-- 8----|
G| 5-- 5------ 8---- 8------ 8-- 8|-- 7-------- 7---------------- 6|
D|------------10--------10--------| 6---------------------------- 6|
A|--------------------------------|--------------------------------|
E|------------ 8------------------| 6---------- 6---------------- 6|
http://classicalguitartablature.blogspot.com/
E|-- 9---------------------- 4----|--------------------------------|
B| 9---------- 6---- 8------ 4----|---------- 4--------------------|
G|------------ 6---- 6---- 6 5----|------ 5-------------- 5-- 6----|
D|-------- 6-- 6------------------|-- 6-------------------------- 6|
A|---------------- 6--------------|--------------------------------|
E|--------------------------------| 4------------ 4-------------- 4|
http://classicalguitartablature.blogspot.com/
E|-------- 6----------------------|------ 8---- 6------------------|
B| 4-------- 9--------------------|------------ 6---- 9-- 6-- 8----|
G| 5-- 5------ 8---- 8------ 8-- 8|-- 7-------- 7---------------- 6|
D|------------10--------10--------| 6---------------------------- 6|
A|--------------------------------|--------------------------------|
E|------------ 8------------------| 6---------- 6---------------- 6|
http://classicalguitartablature.blogspot.com/
E|-- 9------------------------ 4--|---------- 4 3-------------- 1--|
B| 9---------- 6---- 8-------- 1--|-------------- 4-------- 1------|
G|------------ 6---- 6---- 6-- 1--|------ 1------------ 3----------|
D|-------- 6-- 6------------------|-- 1-------------- 1------------|
A|---------------- 6--------------|-------------- 3-------------- 4|
E|------------------------------ 4|--------------------------------|
http://classicalguitartablature.blogspot.com/
E|--------------------------------|-------- 4-- 3---------- 6---- 4|
B|------ 2------ 5 4---------- 4--|------ 4------ 4----------------|
G|---- 1---- 1-- 6-- 6------ 3----|---- 1-------------- 3----------|
D|-- 3-------- 3-------- 6--------|-- 1-------------- 3------------|
A|---------------- 4--------------|-------------- 3----------------|
E|------------------------------ 4|--------------------------------|
http://classicalguitartablature.blogspot.com/
E|--------------------------------|--------------------------------|
B|-------- 6---------- 5 4--------|--------------------------------|
G|------ 5---- 5---- 6------ 6----|--------------------------------|
D|---- 6---------- 6 6---------- 6|--------------------------------|
A| 4---------------- 4------------|--------------------------------|
E|--------------------------------|--------------------------------|
http://classicalguitartablature.blogspot.com/

0 ความคิดเห็น:

แสดงความคิดเห็น