To celebrate the anniversary, I am giving you (finally...) : iPhone LickByNeck !!!!!!

Angel Eyes (BASIC)

Jazz tune fingerstyle chord melody guitar BASIC arrangement played in the key of Dm.
Angel Eyes - BASIC ARRANGEMENT played in the key of Dm.
http://classicalguitartablature.blogspot.com/
E|--------------------------------|--------------------------------|
B|--------------------------------|--------------------------------|
G|-------- 2------------ 3--------|-------- 4-------------- 5------|
D|---- 3------ 3------ 3------ 3--|---- 3------ 3------ 3------ 3--|
A| 5-------------- 5------------ 5|---------------- 5--------------|
E|--------------------------------|--------------------------------|
http://classicalguitartablature.blogspot.com/
E|--------------------------------|--------------------------------|
B|--------------------------------|--------------------------------|
G|-------- 2-------------- 3------|------ 4-------------- 5--------|
D|---- 3------ 3------ 3------ 3--|---- 3------ 3------ 3------ 3--|
A| 5------------ 5----------------| 5-------------- 5--------------|
E|--------------------------------|--------------------------------|
http://classicalguitartablature.blogspot.com/
http://classicalguitartablature.blogspot.com/
E|-------- 5-- 4-------------- 3--|--------------------------------|
B|---- 3------ 6---------------- 6|-------- 6 3 6------------------|
G|---- 5------ 3-------- 3------ 4|-------- 4-- 5---------- 5------|
D|---- 3-------------- 3-------- 3|---- 3------ 6------ 6------ 6--|
A| 5-------------- 5------------ 5|---------------- 5------------ 5|
E|--------------------------------|--------------------------------|
http://classicalguitartablature.blogspot.com/
E|------------ 5--12--12--10------|--------------------------------|
B|------ 6--------10--10--10--10--|-------------------- 4------10--|
G|---- 7----------10--10--10-- 8--|---- 8------ 7------ 6------ 7--|
D|---- 7---------- 9----------10--|----10------ 7------ 5------ 9--|
A|--------------------------------| 8------------------------------|
E|--------------------------------|-------- 6------ 5------ 0------|
http://classicalguitartablature.blogspot.com/
E|-------- 5-- 4-------------- 3--|--------------------------------|
B|---- 3------ 6---------------- 6|---- 6-- 3-- 6---------------- 6|
G|---- 5------ 3-------- 3------ 4|---- 4-- 4-- 5-------- 5---- 7 7|
D|---- 3-------------- 3-------- 3|---- 3-- 3-- 6------ 6-------- 6|
A| 5-------------- 5--------------| 5-------------- 5--------------|
E|--------------------------------|--------------------------------|
http://classicalguitartablature.blogspot.com/
E|--------------------------------|--------------------------------|
B|-------- 6------ 6------ 6-- 3--|--------------------------------|
G|---- 7-- 7-- 7-- 5------ 6-- 5--|-------- 5---------- 7------ 6--|
D|---- 6------ 6------ 6-- 5-- 3--|---- 3------ 3---- 6------ 5----|
A|--------------------------------| 5------------------------------|
E| 0-------------- 6------ 5------|---------------- 6---- 5--------|
http://classicalguitartablature.blogspot.com/
E|-------- 5-- 4-------------- 3--|--------------------------------|
B|---- 3------ 6---------------- 6|-------- 6 3 6------------------|
G|---- 5------ 3-------- 3------ 4|-------- 4-- 5---------- 5------|
D|---- 3-------------- 3-------- 3|---- 3------ 6------ 6------ 6--|
A| 5-------------- 5------------ 5|---------------- 5------------ 5|
E|--------------------------------|--------------------------------|
http://classicalguitartablature.blogspot.com/
E|------------ 5--12--12--10------|--------------------------------|
B|------ 6--------10--10--10--10--|-------------------- 4------10--|
G|---- 7----------10--10--10-- 8--|---- 8------ 7------ 6------ 7--|
D|---- 7---------- 9----------10--|----10------ 7------ 5------ 9--|
A|--------------------------------| 8------------------------------|
E|--------------------------------|-------- 6------ 5------ 0------|
http://classicalguitartablature.blogspot.com/
E|-------- 5-- 4-------------- 3--|--------------------------------|
B|---- 3------ 6---------------- 6|---- 6-- 3-- 6---------------- 6|
G|---- 5------ 3-------- 3------ 4|---- 4-- 4-- 5-------- 5---- 7 7|
D|---- 3-------------- 3-------- 3|---- 3-- 3-- 6------ 6-------- 6|
A| 5-------------- 5--------------| 5-------------- 5--------------|
E|--------------------------------|--------------------------------|
http://classicalguitartablature.blogspot.com/
E|--------------------------------|----------------------10------10|
B|-------- 6------ 6------ 6-- 3--|---------------------- 9------ 8|
G|---- 7-- 7-- 7-- 5------ 6-- 5--|-------- 5----------10------10--|
D|---- 6------ 6------ 6-- 5-- 3--|---- 3------ 3------ 9----------|
A|------------------------------ 5|----------------10--------------|
E| 0-------------- 6------ 5------|--------------------------------|
http://classicalguitartablature.blogspot.com/
E|----10--------------10 8--------|--------------------------------|
B|---- 8-------------- 8 8---- 6--|---------------------------- 4--|
G| 8---------- 8------ 8 8---- 7--|------ 7---------------- 4------|
D|-------- 8------------------ 7--|---- 7------ 7------ 3----------|
A|-------------- 8----------------|--------------------------------|
E| 8------------------------------| 6------------ 3----------------|
http://classicalguitartablature.blogspot.com/
E|10--10----10 810------ 8--------|----------------------10------ 9|
B| 8-- 8---- 8 8 8------ 8---- 6--|---------------------- 8---- 8 7|
G| 8-------- 8 8 8------------ 7--|------ 7------------ 7----------|
D|-------- 8---------- 8------ 7--|---- 7------ 7------------------|
A|-------------- 8----------------|-------------- 6----------------|
E| 8---------------------------- 6|--------------------------------|
http://classicalguitartablature.blogspot.com/
E|-------------------- 7---- 9 7--|---------------------------- 2--|
B|------------ 7------ 7---- 7 7 5|---- 5---------- 5--------------|
G| 7---- 7------------ 7 7---- 7 6|---- 6------ 6-- 2------ 2------|
D|---- 7------------------------ 6|-------- 6---------- 4-------- 8|
A|-------------- 7----------------|---------------- 5------------ 6|
E| 7---------------------------- 5|--------------------------------|
http://classicalguitartablature.blogspot.com/
E|------------ 4-------- 4---- 5--|--------------------------------|
B| 9-- 9 9---- 5-------- 5---- 8--|------------ 8-------------- 6--|
G| 6-- 6 6---- 5-------------- 7--|------ 7-------------- 6--------|
D|---- 8 8------------ 4----------|-- 5---------------- 5----------|
A|--------------------------------|-------------- 0----------------|
E|-------------- 4-------------- 0|--------------------------------|
http://classicalguitartablature.blogspot.com/
E|-------- 5-- 4-------------- 3--|--------------------------------|
B|---- 3------ 6---------------- 6|-------- 6 3 6------------------|
G|---- 5------ 3-------- 3------ 4|-------- 4-- 5---------- 5------|
D|---- 3-------------- 3-------- 3|---- 3------ 6------ 6------ 6--|
A| 5-------------- 5------------ 5|---------------- 5------------ 5|
E|--------------------------------|--------------------------------|
http://classicalguitartablature.blogspot.com/
E|------------ 5--12--12--10------|--------------------------------|
B|------ 6--------10--10--10--10--|-------------------- 4------10--|
G|---- 7----------10--10--10-- 8--|---- 8------ 7------ 6------ 7--|
D|---- 7---------- 9----------10--|----10------ 7------ 5------ 9--|
A|--------------------------------| 8------------------------------|
E|--------------------------------|-------- 6------ 5------ 0------|
http://classicalguitartablature.blogspot.com/
E|-------- 5-- 4-------------- 3--|--------------------------------|
B|---- 3------ 6---------------- 6|---- 6-- 3-- 6---------------- 6|
G|---- 5------ 3-------- 3------ 4|---- 4-- 4-- 5-------- 5---- 7 7|
D|---- 3-------------- 3-------- 3|---- 3-- 3-- 6------ 6-------- 6|
A| 5-------------- 5--------------| 5-------------- 5--------------|
E|--------------------------------|--------------------------------|
http://classicalguitartablature.blogspot.com/
E|--------------------------------|--------------------------------|
B|-------- 6------ 6------ 6-- 3--|--------------------------------|
G|---- 7-- 7-- 7-- 5------ 6-- 5--|-------- 5-------------- 5------|
D|---- 6------ 6------ 6-- 5-- 3--|---- 3------ 3------ 3------ 3--|
A|--------------------------------| 5-------------- 3--------------|
E| 0-------------- 6------ 5------|--------------------------------|
http://classicalguitartablature.blogspot.com/
E| 1------ 1---- 8---- 5------ 5--|--------------------------------|
B| 3-- 3-- 3-- 3 6---- 6-- 8-- 6--|---------- 6-------------- 6----|
G| 1-- 1-- 1-- 1 6---- 6-- 6-- 5--|-------- 5------------ 5--------|
D|---- 3------ 3---------- 5------|---- 7------ 7------ 7------ 7--|
A| 1-------------- 0------------ 5|--------------------------------|
E|--------------------------------|---------------- 8--------------|
http://classicalguitartablature.blogspot.com/
E| 1------ 1---- 8---- 5------ 5--|--------------------------------|
B| 3-- 3-- 3-- 3 6---- 6-- 8-- 6--|--------------------------------|
G| 1-- 1-- 1-- 1 6---- 6-- 6-- 6--|--------------------------------|
D|---- 3------ 3---------- 5------|--------------------------------|
A| 1-------------- 0--------------| 5------------------------------|
E|--------------------------------|--------------------------------|
http://classicalguitartablature.blogspot.com/

0 ความคิดเห็น:

แสดงความคิดเห็น