To celebrate the anniversary, I am giving you (finally...) : iPhone LickByNeck !!!!!!

Danny Boy (Intermediate)

Popular Irish tune fingerstyle chord melody guitar intermediate arrangement played in the key of C.
Danny Boy-Londonderry Air-Internediate Arrangement played in the key of C
http://classicalguitartablature.blogspot.com/
E|--------------------------------| 0------------------ 5-- 3------|
B|------------------------ 0 1 3--| 1-------- 3---- 5------ 5-- 5--|
G|------ 2------------ 2----------| 0---- 0-- 0---- 5---- 3---- 3--|
D|---- 3------ 3------ 3----------|---- 2-------- 4------------ 5 3|
A|--------------------------------| 3------ 2---- 0----------------|
E| 3------------------------------|---------------------- 3------ 1|
http://classicalguitartablature.blogspot.com/
E|--------------------------------|------------ 5------------------|
B| 3 1-------------------- 5-- 6--| 8-------------- 8-- 5---- 5-- 3|
G| 2---- 2---- 0------ 5-- 4------| 5---- 5 7------ 5------ 5------|
D|---------- 2-------- 3 3------ 5|---- 5-- 5---- 5-------- 5------|
A|-------------- 5------ 4--------|--------------------------------|
E|------ 0---------------------- 8|------ 7------ 5------ 3------ 2|
http://classicalguitartablature.blogspot.com/
http://classicalguitartablature.blogspot.com/
E|--------------------------------|-------------------- 5----------|
B|---------------------------- 3--| 5-------------- 5------ 8-- 5--|
G| 2-- 2------ 2------ 4 5---- 4--| 5---- 5-- 7---- 7------ 5------|
D|-- 0------ 0------ 5-- 4---- 3 5|---- 5-------- 5------ 5------ 3|
A|---------------- 7-- 6-- 5-- 4--|--------------------------------|
E|-------- 1-------------------- 8|-------- 7---- 6------ 5------ 4|
http://classicalguitartablature.blogspot.com/
E|--------------------------------| 0------------------------------|
B| 3---------------- 0------ 1 3--| 3---- 6---- 6-- 5-- 3-- 1-- 3--|
G| 5-- 5-- 2-- 2---- 2------ 1 1 3|------ 3---- 6-- 5------ 1-- 1--|
D|------ 2-- 2------ 2------ 3 3--|---- 2 5-- 5-- 3-------- 3-- 3--|
A|--------------------------------|-------- 6---- 5-------- 4-- 2--|
E|------ 3------ 2------ 1------ 0|--------------------------------|
http://classicalguitartablature.blogspot.com/
E|------------------ 3-------- 7--| 8---------- 7-- 7-------- 5----|
B| 1---------------- 1----10------| 8----------10-- 8--10-- 8------|
G| 0---- 0---- 2---- 1-- 7--------| 7---- 7-- 9-- 7---- 7-- 7------|
D|---- 2---- 3---------- 9--------|---- 7-------------- 9 5------ 5|
A| 3------ 0------ 1--------------|-------- 8---- 7----------------|
E|---------------------- 7------ 8|---------------------- 6------ 5|
http://classicalguitartablature.blogspot.com/
E|------------------ 3------ 5 7--| 8---------- 7-- 7-- 5----------|
B| 8-- 5------------ 1------ 5----| 9---- 9---- 8-- 6------ 8-- 5--|
G| 5------ 5------ 2-------- 5----| 7-- 7---- 7-- 5-------- 6-- 6--|
D|------------ 3------------------|---------------------- 5---- 5--|
A|------------------------------ 8|---------------------- 6--------|
E|------ 4-------- 3---- 2--------|-------- 6---- 5----------------|
http://classicalguitartablature.blogspot.com/
E|-------------------- 3-- 3-- 3--|12----------10--10---------- 8--|
B| 3------------------ 3-- 3-- 3--|13----------13--13--13----10----|
G| 5---- 5------ 3---- 2-- 2-- 213|----------------10--10---- 9----|
D|---- 3---- 5--------------------|----------10----12--12----------|
A| 5------ 4------ 3------ 2----13|--------12------11------10------|
E|--------------------------------|--------------------------------|
http://classicalguitartablature.blogspot.com/
E|-------- 8----------------------|-------- 5----------------------|
B| 8-- 5-- 8---------- 1-- 1-- 3--| 5------ 6 8-- 5 3-- 1------ 0--|
G| 9-- 6-- 7-- 6------ 2-- 3-- 2--| 7------ 6 5-- 4 4-- 2---- 2 0--|
D| 8-- 7-- 6-- 5-- 4-- 3-- 2-- 1--|---- 6---- 7-- 3 2-- 2---- 3 0--|
A| 9------------------------------|-------- 6 5-- 4 3------ 1---- 2|
E|---- 7-- 6-- 5-- 4-- 3-- 2-- 1--| 0------------------ 1----------|
http://classicalguitartablature.blogspot.com/
E|--------------------------------|---------- 5--------------------|
B| 1---------- 1------ 1---- 1-- 3| 5-------- 8 8-- 5-- 3---- 1----|
G| 0------ 0---------- 0---- 0-- 1| 5-------- 7 7-- 5-- 5---- 0----|
D| 2-- 2------------------------ 1| 5---- 5---- 5-- 5-- 3---- 2----|
A| 3-------------- 3------ 2---- 1|-------------------- 5----------|
E|--------------------------------| 5-------- 6 7-- 8-------- 0----|
http://classicalguitartablature.blogspot.com/
E|--------------------------------|--------------------------------|
B|-------- 0----------------------|---- 1--------------------------|
G| 2------ 2----------------------|---- 0--------------------------|
D| 3---- 2------------------------|-- 2----------------------------|
A|--------------------------------|--------------------------------|
E| 1---- 2------------------------|-- 3----------------------------|
http://classicalguitartablature.blogspot.com/

0 ความคิดเห็น:

แสดงความคิดเห็น