To celebrate the anniversary, I am giving you (finally...) : iPhone LickByNeck !!!!!!
0 com

Aren't Yu Glad You Are You (Intermediate)

Jazz tune fingerstyle chord melody guitar intermediate arrangement played in the key of F.
Aren't You Glad You're You - INTERMEDIATE ARRANGEMENT played in the key of F.
http://classicalguitartablature.blogspot.com/
E| 6----10---------------- 3------| 1------------------------------|
B| 8----10-------- 5------ 4------| 1-------------------------- 1--|
G| 7------11------ 3------ 3------| 2-- 2------ 3-- 3---------- 1--|
D|---- 8------10------ 5------ 2--|------------ 3------ 2------ 0--|
A|-------- 0----------------------|--------------------------------|
E| 6-------------- 3------ 2------| 1------ 3------ 2------ 0------|
http://classicalguitartablature.blogspot.com/
E|---------------------- 5--------|--------10------10--------------|
B| 1------ 3---- 6------ 6--------| 8------ 8------12--------------|
G| 2------ 0------ 5--------------| 7------ 7------10--------------|
D|---- 2------ 2------ 7------ 7--|---- 8------ 8------12------12--|
A|---------------- 5--------------|-------- 0------11------10------|
E| 1------ 0-------------- 8------| 6------------------------------|
http://classicalguitartablature.blogspot.com/
http://classicalguitartablature.blogspot.com/
E|12----------10-- 8--------------| 5------------------------------|
B|11---------- 8-- 5------11------| 6------ 6---- 6----------------|
G| 9---------- 7-- 5------ 9------| 5------ 6---- 5------------ 4--|
D|----11-------------- 8------11--|---- 7-- 5-- 5------ 3------ 6--|
A| 9------ 8------ 7------ 9------| 8------ 6---- 5-------- 4------|
E|--------------------------------|--------------------------------|
http://classicalguitartablature.blogspot.com/
E|12--12------10---------------- 5|--------------------------------|
B|10--11------1113------11------ 5|-------- 6------ 6--------------|
G| 9--12------1212------12--------|---- 5-- 3------ 5---------- 4--|
D|--------------------10------11--|------------ 3------ 5------ 6--|
A|--------------------------------|--------------------------------|
E| 8------10------11----12--------| 1------ 3------ 5------ 4------|
http://classicalguitartablature.blogspot.com/
E|--------------------------------|--------------------------------|
B| 5------ 8------------ 8--------|--------------------------------|
G| 5------ 5------ 7---- 7------ 5|-------------------- 5------ 5--|
D|---- 5------ 5------ 5------ 5--|---- 8------ 8------ 8------ 8--|
A|--------------------------------|-------- 5------ 6------ 7------|
E| 3------ 5------ 6------ 7---- 8|--------------------------------|
http://classicalguitartablature.blogspot.com/
E|---------------------- 5--------|--------10------10--------------|
B| 1------ 3---- 6------ 6--------| 8------ 8------12--------------|
G| 2------ 0------ 5--------------| 7------ 7------10--------------|
D|---- 2------ 2------ 7------ 7--|---- 8------ 8------12------12--|
A|---------------- 5--------------|-------- 0------11------10------|
E| 1------ 0-------------- 8------| 6------------------------------|
http://classicalguitartablature.blogspot.com/
E|12----------10 9-------- 7---- 5|-------------- 0--------------12|
B|10----------12-- 7------ 7---- 2|-------- 5------ 2------------10|
G|----11------10-- 7------ 7---- 2|-------- 4------ 2---------- 211|
D|-------------------- 7------ 6--|---- 2------ 6------ 2------ 0--|
A| 9------11------ 0------------ 4|------ 5------------------------|
E|------------------------ 7------|---------------- 0------ 1------|
http://classicalguitartablature.blogspot.com/
E|----12------10 9------ 7--------| 5-------------- 0--------------|
B|----10------1012------ 6--------| 5------ 5------ 2--------------|
G|------------10 9------ 7--------| 4------ 4------ 2--------------|
D|--------------------12------ 6--|---- 4-- 2-- 2------ 2------ 2--|
A| 9------10----11----------------|--------------------------------|
E|------------------------ 6------| 5------ 4------ 2------ 0------|
http://classicalguitartablature.blogspot.com/
E| 5------ 9------------ 7------ 5|-------------- 8------ 9--------|
B| 7------ 9------ 9---- 9------ 5|--------------11------ 9--------|
G| 6------ 9------ 9---- 7--------| 4------------------ 9-- 8------|
D|---- 7------ 9------ 9------ 9--|---- 4------ 4-------------- 7--|
A| 6------------------------------|--------------10-------- 8------|
E|--------10------ 9------ 7------| 5------ 4----------------------|
http://classicalguitartablature.blogspot.com/
E|10--------------10------ 8----11|------------------------10---- 8|
B|13------13------10------ 7----13|------------------------10------|
G|12------10------ 8------ 8------|----12------12------ 8------ 8--|
D|----10------12------10------ 7--|-------------------- 8----------|
A|--------------------------------|13------12------10------ 9---- 8|
E|11------10------ 8------ 7------|--------------------------------|
http://classicalguitartablature.blogspot.com/
E|-------- 6------ 8------ 6------| 9---------------------- 8------|
B| 6------ 8------ 8------ 6------|11---------------------- 8------|
G|---- 7------ 7-- 5---------- 4--|10-------------- 6------ 6------|
D|-------------------- 5----------|----11------11------ 5------ 5--|
A|-------- 7------ 6------ 5------|--------------------------------|
E|--------------------------------| 9------ 8------ 6------ 5------|
http://classicalguitartablature.blogspot.com/
E| 6------ 4----------------------| 8---------------------------- 5|
B| 4------ 4------11------ 9------|11---------------------------- 6|
G| 5------ 3------ 8------ 8------|10-------------- 7---------- 6 5|
D|---- 5------ 3------ 8--10--10--|---- 8------ 8------ 8------ 5--|
A|---------------- 8--------------|--------------------------------|
E| 4------ 3--------------11------|10---- 9-------- 8------ 6------|
http://classicalguitartablature.blogspot.com/
E|---- 810---- 8------------------|--------------------------------|
B|------10----10----10-- 6------ 3|-------- 8-- 1------------------|
G|------10---------- 7-- 6------ 3|-------- 5-- 3------------------|
D|---------------------------- 5--|---- 3-- 5-- 2------ 2------ 2--|
A|--------10---- 8------ 6------ 5|-------- 6----------------------|
E| 5------------------------------|---------------- 0------ 2------|
http://classicalguitartablature.blogspot.com/
E|---------------------- 5--------|--------10------10--------------|
B| 1------ 3---- 6------ 6--------| 8------ 8------12--------------|
G| 2------ 0------ 5--------------| 7------ 7------10--------------|
D|---- 2------ 2------ 7------ 7--|---- 8------ 8------12------12--|
A|---------------- 5--------------|-------- 0------11------10------|
E| 1------ 0-------------- 8------| 6------------------------------|
http://classicalguitartablature.blogspot.com/
E|12----------10-- 8--------------| 5------------------------------|
B|11---------- 8-- 5------11------| 6------ 6---- 6----------------|
G| 9---------- 7-- 5------ 9------| 5------ 6---- 5------------ 4--|
D|----11-------------- 8------11--|---- 7-- 5-- 5------ 3------ 6--|
A| 9------ 8------ 7------ 9------| 8------ 6---- 5-------- 4------|
E|--------------------------------|--------------------------------|
http://classicalguitartablature.blogspot.com/
E|12--12------10------------------|--------10----10-------------- 6|
B|10--11------1113------11------10|--------13------11------------ 8|
G| 9--12------1212------12--------| 9------12----------11------11--|
D|--------------------10------11--|----10------10------------------|
A|--------------------------------| 8------------------------------|
E| 8------10------11----12--------|--------11----10------ 8--------|
http://classicalguitartablature.blogspot.com/
E|------10---------------- 3------| 1---------------------------- 6|
B|------10-------- 5------ 4------| 1---------------------------- 8|
G| 7------11------ 3------ 3------| 2-- 2------ 3-- 4---------- 5--|
D|---- 8------10------ 5------ 2--|------------ 3------ 3------ 3--|
A|-------- 0----------------------|--------------------------------|
E| 6-------------- 3------ 2------| 1------ 3------ 4------ 5------|
http://classicalguitartablature.blogspot.com/
E|------10---------------- 3------| 1------------------------------|
B|------10-------- 5------ 4------| 1-------------------------- 1--|
G| 7------11------ 3------ 3------| 2-- 2------ 3-- 3---------- 1--|
D|---- 8------10------ 5------ 2--|------------ 3------ 2------ 0--|
A|-------- 0----------------------|--------------------------------|
E| 6-------------- 3------ 2------| 1------ 3------ 2------ 0------|
http://classicalguitartablature.blogspot.com/
E|--------------------------------|--------------------------------|
B|--------------------------------|--------------------------------|
G|-- 2----------------------------|--------------------------------|
D| 2------------------------------|--------------------------------|
A|--------------------------------|--------------------------------|
E| 1------------------------------|--------------------------------|
http://classicalguitartablature.blogspot.com/
0 com

Don't Explain (Intermediate)

Billie Holiday's tune fingerstyle chord melody guitar intermediate arrangement played in the key of Em.
Don't Explain - INTERMEDIATE ARRANGEMENTplayed in the key of Em
http://classicalguitartablature.blogspot.com/
E|10---- 8------------------------| 8------ 7------------ 7------ 3|
B| 8------10----------------------| 6------ 8-- 8-------- 5---- 5 3|
G|---- 8-- 8-- 8------ 8------ 7--| 6-- 6---- 6-------- 2------ 5 2|
D|-- 7------10------10------ 6----|-- 5-------------- 1------ 4----|
A| 0------10------ 8---- 7--------| 6------ 7----------------------|
E|--------------------------------|---------------- 2------ 4------|
http://classicalguitartablature.blogspot.com/
E|--------------------------------|--------------------------------|
B|-------------- 8------ 7--------|--------------------------------|
G|---- 2------ 2------ 6------ 4--|---- 5------ 5------ 5------ 8--|
D|-- 2------ 2------ 9------ 7----|-- 7------ 4------ 8------ 7----|
A|-------------- 7-------- 5---- 6|-------- 5------ 7------ 8------|
E| 3------ 2----------------------|--------------------------------|
http://classicalguitartablature.blogspot.com/
http://classicalguitartablature.blogspot.com/
E| 0-------------------- 7--------|--------------------------------|
B| 0------ 8------------ 5---- 5 5|--------------------------------|
G|-------- 5-- 5------ 7 4--------|---- 2------ 2------ 2------ 2--|
D|---- 0---- 7------ 5------ 5----|-- 4------ 4------ 4------ 4----|
A|-------- 6---- 5------ 4------ 3|-------- 2------ 0--------------|
E| 0------------------------------|---------------------- 4--------|
http://classicalguitartablature.blogspot.com/
E|------ 3------------------------| 2----------------------------10|
B| 5---- 4---------------- 7-- 8--| 2---------------------------- 8|
G|---- 4------ 2------ 7-- 7------| 3-- 3------ 3------ 2------ 0--|
D|-- 2------ 4------ 5------ 5----|-- 4------ 2------ 1------ 2----|
A|------------------------ 5------| 4------ 3------ 2------ 1---- 0|
E| 3------ 2------ 0--------------|--------------------------------|
http://classicalguitartablature.blogspot.com/
E|------ 8------------------------| 8------ 7------------ 7--------|
B|------10------------------------| 6------ 8-- 8-------- 5---- 5--|
G|---- 8 8---- 8------ 8------ 7--| 6-- 6---- 6-------- 2------ 5--|
D|-- 7------10------10------ 6----|-- 5-------------- 1------ 4----|
A|------10------ 8------ 7--------| 6------ 7----------------------|
E|--------------------------------|---------------- 2------ 4------|
http://classicalguitartablature.blogspot.com/
E| 2------------------------------|--------------------------------|
B| 3------------ 8------ 7--------|--------------------------------|
G| 2-- 2------ 2------ 6------ 4--|---- 5------ 5------ 5------ 8--|
D|-- 2------ 2------ 9------ 7----|-- 7------ 4------ 8------ 7----|
A|-------------- 7-------- 5---- 6|-------- 5------ 7------ 8------|
E| 3------ 2----------------------|--------------------------------|
http://classicalguitartablature.blogspot.com/
E| 0-------------------- 7--------|--------------------------------|
B| 0------ 8------------ 5---- 5 5|--------------------------------|
G|-------- 5-- 5------ 7 4--------|---- 2------ 2------ 2------ 2--|
D|---- 0---- 7------ 5------ 5----|-- 4------ 4------ 4------ 4----|
A|-------- 6---- 5------ 4------ 3|-------- 2------ 0--------------|
E| 0------------------------------|---------------------- 4--------|
http://classicalguitartablature.blogspot.com/
E|------ 3------------------------| 2----------------------------10|
B| 5---- 4---------------- 7-- 8--| 2---------------------------- 8|
G|---- 4------ 2------ 7-- 7------| 3-- 3------ 3------ 2------ 0--|
D|-- 2------ 4------ 5------ 5----|-- 4------ 2------ 1------ 2----|
A|------------------------ 5------| 4------ 3------ 2------ 1---- 0|
E| 3------ 2------ 0--------------|--------------------------------|
http://classicalguitartablature.blogspot.com/
E|------ 8------------------------| 8------ 7------------ 7------ 3|
B|------10------------------------| 6------ 8-- 8-------- 5---- 5 3|
G|---- 8 8---- 8------ 8------ 7--| 6-- 6---- 6-------- 2------ 5 2|
D|-- 7------10------10------ 6----|-- 5-------------- 1------ 4----|
A|------10------ 8------ 7--------| 6------ 7----------------------|
E|--------------------------------|---------------- 2------ 4------|
http://classicalguitartablature.blogspot.com/
E|--------------------------------|------------------------------ 7|
B|--------------------------------|------------------------------ 5|
G|---- 2------ 2------ 6------ 4--| 4-- 4------ 3 2---- 2------ 2 4|
D|-- 2------ 2------ 8------ 4----| 5-- 5---- 2---- 1-- 1---- 1----|
A|------------------------ 5------| 4------ 3---- 2------ 0--------|
E| 3------ 2------ 0--------------|------------------------------ 3|
http://classicalguitartablature.blogspot.com/
E|---- 710---- 7 8---- 8-------- 5|---- 5 8------ 7-------------- 3|
B|---- 5-- 7-- 7-- 5-- 6-------- 5|---- 510----10 5-------------- 5|
G|-- 4---- 8------ 5-- 6------ 6 5|------ 8---- 8 7---- 7------ 7--|
D|---------- 7-------------- 6----|-- 5------10------ 5------ 5----|
A|-------- 9------ 7---- 6------ 5|--------------------------------|
E|--------------------------------|------ 8-------- 7------ 5------|
http://classicalguitartablature.blogspot.com/
E|---- 3 7-------- 5-- 5----------|-------- 5-- 5-- 5-- 3 2------ 7|
B|---- 5 8---- 8-- 7-- 7-------- 7|---- 8-- 3-- 3 7------ 3------ 8|
G| 5---- 7-------- 5-- 5------ 5 5|-------- 3------ 4---- 2---- 2 7|
D|-- 5------ 9-------------- 7----|-- 5------ 3------ 4------ 1----|
A|------ 8-------- 7---- 6------ 7|-------- 5------ 6--------------|
E| 3------------------------------|------------------------ 1------|
http://classicalguitartablature.blogspot.com/
E|---- 7--10-- 7-- 8-- 8----------| 5-- 5 8---- 5------------------|
B|---- 8-- 8-- 8--10-- 9-------- 7|---- 7 4------12-------------- 8|
G|---------- 9---- 9-- 7------ 7--| 5------ 5----11----11------11 5|
D|-- 9--------------10------ 9----|-- 7------ 4------12------12----|
A|--------------------------------|----------------10------ 9---- 7|
E| 0------10------ 8------ 7------| 5------ 4----------------------|
http://classicalguitartablature.blogspot.com/
E|------ 7------ 5---- 5----------|------ 5------ 2----------------|
B|---- 8 8---- 8 5---- 4-------- 7|---- 8 8---- 8 5------ 4--------|
G|-------- 7---- 5---- 2------ 2 6|------ 5------ 4---- 4------ 2--|
D|-- 9------ 5------ 4------ 4----|-- 5------ 7------ 2---- 4 4----|
A|-------- 5------ 3------ 2------|--------------------------------|
E|------------------------------ 6|-------- 5------ 3------ 2------|
http://classicalguitartablature.blogspot.com/
E| 0-------------------- 7--------|--------------------------------|
B| 0------ 8------------ 5---- 5 5|--------------------------------|
G|-------- 5-- 5------ 7 4--------|---- 2------ 2------ 2------ 2--|
D|---- 0---- 7------ 5------ 5----|-- 4------ 4------ 4------ 4----|
A|-------- 6---- 5------ 4------ 3|-------- 2------ 0--------------|
E| 0------------------------------|---------------------- 4--------|
http://classicalguitartablature.blogspot.com/
E|------ 3------------------------| 2----------------------------10|
B| 5---- 4---------------- 7-- 8--| 2---------------------------- 8|
G|---- 4------ 2------ 7-- 7------| 3-- 3------ 3------ 2------ 0--|
D|-- 2------ 4------ 5------ 5----|-- 4------ 2------ 1------ 2----|
A|------------------------ 5------| 4------ 3------ 2------ 1---- 0|
E| 3------ 2------ 0--------------|--------------------------------|
http://classicalguitartablature.blogspot.com/
E|------ 8------------------------| 8------ 7------------ 7------ 3|
B|------10------------------------| 6------ 8-- 8-------- 5---- 5 3|
G|---- 8 8---- 8------ 8------ 7--| 6-- 6---- 6-------- 2------ 5 2|
D|-- 7------10------10------ 6----|-- 5-------------- 1------ 4----|
A|------10------ 8------ 7--------| 6------ 7----------------------|
E|--------------------------------|---------------- 2------ 4------|
http://classicalguitartablature.blogspot.com/
E|--------------------------------|--------------------------------|
B|-------------- 8------ 7--------|--------------------------------|
G|---- 2------ 2------ 6------ 4--|---- 5------ 5------ 5------ 8--|
D|-- 2------ 2------ 9------ 7----|-- 7------ 4------ 8------ 7----|
A|-------------- 7-------- 5---- 6|-------- 5------ 7------ 8------|
E| 3------ 2----------------------|------------------------------ 0|
http://classicalguitartablature.blogspot.com/
E|--------------------------------|--------------------------------|
B| 2------------------------------|--------------------------------|
G| 0------------------------------|--------------------------------|
D| 2------------------------------|--------------------------------|
A|--------------------------------|--------------------------------|
E|--------------------------------|--------------------------------|
http://classicalguitartablature.blogspot.com/
0 com

I Will Wait For You (Intermediate)

Michel Legrand's tune fingerstyle chord melody guitar intermediate arrangement played in the key of Am.
I Will Wait For You - Michel Legrand - Intermediate ARRANGEMENT played in the key of Am
http://classicalguitartablature.blogspot.com/
E| 0---- 5------ 5----------------|--------------------------------|
B| 1---- 5-------- 5--------------|---------------------------- 5--|
G| 2---- 5---- 5-- 5---------- 6--|---- 5-------------- 7------ 7--|
D|---- 2-------------- 7------ 5--|---- 4------ 4------ 7------ 6--|
A|------------------------ 6------| 5---- 3------------------------|
E| 2------ 1------ 0--------------|---------------- 7------ 6------|
http://classicalguitartablature.blogspot.com/
E|------ 5-------- 5--------------|--------------------------------|
B| 7---- 5-------- 5--------------|---------------- 5---- 5------ 5|
G| 5------ 4------ 5--------------|---- 5---------- 4------ 2------|
D|---- 7------ 2------ 4------ 4--|---- 4------ 4------ 5------ 4--|
A|--------------------------------| 6------ 5------ 4------ 3------|
E| 5------ 3------ 2------ 0------|--------------------------------|
http://classicalguitartablature.blogspot.com/
http://classicalguitartablature.blogspot.com/
E|------ 7------ 7----------------|---- 4---- 5---- 7---- 5-- 4----|
B|------ 6------ 6----------------|---- 3---- 3---- 6---- 5-- 3----|
G| 7---- 7------------ 7------ 7--| 2-- 0---- 4---- 4---- 2-- 1----|
D|---- 6------ 6------------------| 2------------------------------|
A|--------------------------------|---------------- 5---- 3---- 1--|
E| 7---- 6------ 5------ 4--------| 2---- 1---- 0------------------|
http://classicalguitartablature.blogspot.com/
E| 5------------------------------|--------------------------------|
B| 5------------------------------|------------------------ 4-- 5--|
G| 5------------------ 2----------|-------------------- 2-------- 7|
D|---- 5------ 5------ 2------ 0--|---- 6------ 6------ 2-- 3-- 6--|
A| 0------------------------------|-------- 5------ 3------ 2------|
E|-------- 3------ 2------ 1------| 0-------------------------- 6--|
http://classicalguitartablature.blogspot.com/
E|--------------------------------|-------------- 5-------- 5------|
B| 3-------------------- 1---- 0--|-------------- 6-------- 5------|
G| 5------------------ 2 2---- 2--|---- 2-------- 6-------- 3-- 3--|
D|---- 5------ 3------ 2 2---- 0--|---- 2------ 2------ 5----------|
A|--------------------------------|-------------- 6-------- 4------|
E| 5------ 4------ 3------ 2------| 1---- 0------------------------|
http://classicalguitartablature.blogspot.com/
E| 3------------------ 1----------|--------------------------------|
B| 6------------------ 3-- 5-- 6--|---- 6---------- 3------ 3------|
G| 5---------- 3------ 2-- 2-- 5--|---- 5------ 5-- 5------ 2------|
D|---- 3------ 5---------- 3-- 3--|---- 3------ 3-- 3-- 3------ 2--|
A| 5---- 4------ 3-------- 2------|--------------------------------|
E|--------------------------------| 5------ 4------ 3------ 2------|
http://classicalguitartablature.blogspot.com/
E|--------------------------------|--------------------------------|
B| 1------------------------------|---------------- 8------ 8---- 6|
G| 0-------------------------- 4--| 2-- 0---------- 7------ 6------|
D|---- 0------ 0------ 3------ 3--| 3---------- 3------ 6-- 5-- 5--|
A|---------------- 5---- 4--------| 3------ 2----------------------|
E| 1------ 0----------------------|---------------- 6------ 5------|
http://classicalguitartablature.blogspot.com/
E|-------------------- 0----------|--------------------------------|
B|-------------------- 1-- 3-- 5--|---------------- 4---- 5--------|
G| 5------------------ 2-- 2-- 7--|---------------- 2---- 2--------|
D|---- 3------ 3---------- 3-- 6--|---- 6------ 6------ 3------ 3--|
A|--------------------------------|------ 5-------- 3------ 2------|
E| 4------ 3------ 2------ 1------| 0------------------------------|
http://classicalguitartablature.blogspot.com/
E|--------------------------------|-------------- 5-------- 5------|
B| 3-------------------- 1---- 0--|-------------- 6-------- 5------|
G| 5------------------ 2 2---- 2--|---- 2-------- 6-------- 3-- 3--|
D|---- 5------ 3------ 2 2---- 0--|---- 2------ 2------ 5----------|
A|--------------------------------|-------------- 6-------- 4------|
E| 5------ 4------ 3------ 2------| 1---- 0------------------------|
http://classicalguitartablature.blogspot.com/
E| 3------------------ 1----------|------------------------------ 0|
B| 6------------------ 3-- 5-- 6--|---------------------- 5---- 3 1|
G| 5---------- 3------ 2-- 2-- 4--|-------------- 5------ 5---- 5--|
D|---- 3------ 5---------- 3-- 6--|---- 6-- 5-- 5------ 3 3---- 3--|
A| 5---- 4------ 3-------- 2------|--------------------------------|
E|--------------------------------| 6------ 5------ 4------ 3------|
http://classicalguitartablature.blogspot.com/
E|------ 5------------------------|--------------------------------|
B|------ 5------------------------|-------- 5----------------------|
G| 2---- 5---- 5------------------| 4------ 2----------------------|
D|---- 2---------- 7-- 7------ 7--|---- 6------ 4-- 2---------- 2--|
A|------------------------ 6------| 5------ 3------ 2------ 1------|
E| 2------ 1------ 0--------------|--------------------------------|
http://classicalguitartablature.blogspot.com/
E|--------------------------------|--------------------------------|
B|--------------------------------|------------------------ 4-- 5--|
G| 2-------------------------- 2--|-------------------- 2-------- 7|
D|---- 2------ 2------ 2------ 0--|---- 6------ 6------ 2-- 3-- 6--|
A| 0------------------------------|-------- 5------ 3------ 2------|
E|-------- 3------ 2------ 1------| 0-------------------------- 6--|
http://classicalguitartablature.blogspot.com/
E|--------------------------------|-------------- 5-------- 5------|
B| 3-------------------- 1---- 0--|-------------- 6-------- 5------|
G| 5------------------ 2 2---- 2--|---- 2-------- 6-------- 3-- 3--|
D|---- 5------ 3------ 2 2---- 0--|---- 2------ 2------ 5----------|
A|--------------------------------|-------------- 6-------- 4------|
E| 5------ 4------ 3------ 2------| 1---- 0------------------------|
http://classicalguitartablature.blogspot.com/
E| 3------------------ 1----------|--------------------------------|
B| 6------------------ 3-- 5-- 6--|---- 6---------- 3------ 3------|
G| 5---------- 3------ 2-- 2-- 5--|---- 5------ 5-- 5------ 2------|
D|---- 3------ 5---------- 3-- 3--|---- 3------ 3-- 3-- 3------ 2--|
A| 5---- 4------ 3-------- 2------|--------------------------------|
E|--------------------------------| 5------ 4------ 3------ 2------|
http://classicalguitartablature.blogspot.com/
E|--------------------------------|--------------------------------|
B| 1------------------------------|---------------- 8------ 8---- 6|
G| 0-------------------------- 4--| 2-- 0---------- 7------ 6------|
D|---- 0------ 0------ 3------ 3--| 3---------- 3------ 6-- 5-- 5--|
A|---------------- 5---- 4--------| 3------ 2----------------------|
E| 1------ 0----------------------|---------------- 6------ 5------|
http://classicalguitartablature.blogspot.com/
E|-------------------- 0----------|--------------------------------|
B|-------------------- 1-- 3-- 5--|---------------- 4---- 5--------|
G| 5------------------ 2-- 2-- 7--|---------------- 2---- 2--------|
D|---- 3------ 3---------- 3-- 6--|---- 6------ 6------ 3------ 3--|
A|--------------------------------|------ 5-------- 3------ 2------|
E| 4------ 3------ 2------ 1------| 0------------------------------|
http://classicalguitartablature.blogspot.com/
E|--------------------------------|-------------- 5-------- 5------|
B| 3-------------------- 1---- 0--|-------------- 6-------- 5------|
G| 5------------------ 2 2---- 2--|---- 2-------- 6-------- 3-- 3--|
D|---- 5------ 3------ 2 2---- 0--|---- 2------ 2------ 5----------|
A|--------------------------------|-------------- 6-------- 4------|
E| 5------ 4------ 3------ 2------| 1---- 0------------------------|
http://classicalguitartablature.blogspot.com/
E| 3------------------ 1----------|------------------------------ 0|
B| 6------------------ 3-- 5-- 6--|---------------------- 5---- 3 1|
G| 5---------- 3------ 2-- 2-- 4--|-------------- 5------ 5---- 5--|
D|---- 3------ 5---------- 3-- 6--|---- 6-- 5-- 5------ 3 3---- 3--|
A| 5---- 4------ 3-------- 2------|--------------------------------|
E|--------------------------------| 6------ 5------ 4------ 3------|
http://classicalguitartablature.blogspot.com/
E|------ 5------------------------|--------------------------------|
B|------ 5------------------------|-------- 5----------------------|
G| 2---- 5---- 5------------------| 4------ 2----------------------|
D|---- 2---------- 7-- 7------ 7--|---- 6------ 4-- 2---------- 2--|
A|------------------------ 6------| 5------ 3------ 2------ 1------|
E| 2------ 1------ 0--------------|--------------------------------|
http://classicalguitartablature.blogspot.com/
E|--------------------------------|--------------------------------|
B|--------------------------------|---------------------------- 6--|
G| 2-------------------------- 2--|---- 3------ 6------ 3------ 3--|
D|---- 2------ 2------ 2------ 0--|---- 2------ 5------ 5------ 5--|
A| 0------------------------------|-------- 6------ 5------ 4------|
E|-------- 3------ 2------ 1------| 0------------------------------|
http://classicalguitartablature.blogspot.com/
E| 3-- 3--------------------------| 5-------------------------- 0--|
B| 6-- 6-- 6-- 6 8---- 8-- 6-- 6--| 8-- 8------ 6------ 6------ 1--|
G| 5-- 5 3---- 3 7---- 7-- 7-- 7--| 7-- 6------ 5------ 5------ 2--|
D|------ 5---- 5-- 7-- 7-- 7-- 7--|---- 5------ 3------ 3----------|
A| 5------ 4----------------------|--------------------------------|
E|---------------- 8------ 7------| 6------ 5------ 4-------- 2----|
http://classicalguitartablature.blogspot.com/
E| 1-- 1-- 0-- 0-- 1-- 1 0---- 0--|--------------------------------|
B| 1-- 1-- 1-- 1-- 3-- 3-- 1-- 1--| 8-- 6------ 5------ 5------ 3 5|
G| 0-- 0------ 2-- 1-- 1-- 0-- 0--| 6-- 5------ 3------ 3------ 2 7|
D|--------------------------------| 8-- 7------ 5------ 5------ 3 7|
A|--------------------------------| 6------ 5------ 4---- 3--------|
E| 3------ 2------ 1------ 0------|--------------------------------|
http://classicalguitartablature.blogspot.com/
E|--------------------------------| 1-- 0--------------------------|
B|---- 5---------- 5-- 5-- 3-- 3--| 1-- 1------ 3------------------|
G|---- 7 7---- 7-- 4-- 4-- 4-- 4--| 1-- 2------ 2------ 2----------|
D|---- 7 6---- 6-- 3-- 3-- 3-- 3--|------------ 3------ 3------ 3--|
A|--------------------------------|--------------------------------|
E| 7------ 6------ 5------ 4------| 3------ 2------ 1------ 0------|
http://classicalguitartablature.blogspot.com/
E|--------------------------------|--------------------------------|
B|--------------------------------|---------------- 1-- 3-------- 0|
G| 5------------------------------|---- 5 5---- 5-- 2-- 2------ 2--|
D|---- 4------ 4------ 4------ 4--|---- 4-- 3-- 3-- 2-- 2------ 0--|
A| 6---- 5-------- 3------ 2------|--------------------------------|
E|--------------------------------| 5------ 4------ 3---- 2---- 1--|
http://classicalguitartablature.blogspot.com/
E|--------------------------------|--------------------------------|
B|--------------------------------|-------------- 4-------- 5------|
G| 1------------------ 2------ 2--| 1---- 4------ 4-------- 7------|
D|---- 3------ 3------ 4------ 3--|---- 0------ 3------ 3------ 6--|
A|------ 5-------- 3------ 2------| 1---- 0------------------------|
E| 0------------------------------|---------------- 4------ 6------|
http://classicalguitartablature.blogspot.com/
E|--------------------------------|-------------- 5-------- 5------|
B| 3-------------------- 1---- 0--|-------------- 6-------- 5------|
G| 5------------------ 2 2---- 2--|---- 2-------- 6-------- 3-- 3--|
D|---- 5------ 3------ 2 2---- 0--|---- 2------ 2------ 5----------|
A|--------------------------------|-------------- 6-------- 4------|
E| 5------ 4------ 3------ 2------| 1---- 0------------------------|
http://classicalguitartablature.blogspot.com/
E| 3------------------ 1----------|--------------------------------|
B| 6------------------ 3-- 5-- 6--|---- 6---------- 3------ 3------|
G| 5---------- 3------ 2-- 2-- 5--|---- 5------ 5-- 5------ 2------|
D|---- 3------ 5---------- 3-- 3--|---- 3------ 3-- 3-- 3------ 2--|
A| 5---- 4------ 3-------- 2------|--------------------------------|
E|--------------------------------| 5------ 4------ 3------ 2------|
http://classicalguitartablature.blogspot.com/
E|--------------------------------|--------------------------------|
B| 1------------------------------|---------------- 8------ 8---- 6|
G| 0-------------------------- 4--| 2-- 0---------- 7------ 6------|
D|---- 0------ 0------ 3------ 3--| 3---------- 3------ 6-- 5-- 5--|
A|---------------- 5---- 4--------| 3------ 2----------------------|
E| 1------ 0----------------------|---------------- 6------ 5------|
http://classicalguitartablature.blogspot.com/
E|-------------------- 0----------|--------------------------------|
B|-------------------- 1-- 3-- 5--|---------------- 4---- 5--------|
G| 5------------------ 2-- 2-- 7--|---------------- 2---- 2--------|
D|---- 3------ 3---------- 3-- 6--|---- 6------ 6------ 3------ 3--|
A|--------------------------------|------ 5-------- 3------ 2------|
E| 4------ 3------ 2------ 1------| 0------------------------------|
http://classicalguitartablature.blogspot.com/
E|--------------------------------|-------------- 5-------- 5------|
B| 3-------------------- 1---- 0--|-------------- 6-------- 5------|
G| 5------------------ 2 2---- 2--|---- 2-------- 6-------- 3-- 3--|
D|---- 5------ 3------ 2 2---- 0--|---- 2------ 2------ 5----------|
A|--------------------------------|-------------- 6-------- 4------|
E| 5------ 4------ 3------ 2------| 1---- 0------------------------|
http://classicalguitartablature.blogspot.com/
E| 3------------------ 1----------|------------------------------ 0|
B| 6------------------ 3-- 5-- 6--|---------------------- 5---- 3 1|
G| 5---------- 3------ 2-- 2-- 4--|-------------- 5------ 5---- 5--|
D|---- 3------ 5---------- 3-- 6--|---- 6-- 5-- 5------ 3 3---- 3--|
A| 5---- 4------ 3-------- 2------|--------------------------------|
E|--------------------------------| 6------ 5------ 4------ 3------|
http://classicalguitartablature.blogspot.com/
E|------ 5------ 5----------------|--------------------------------|
B|------ 5-------- 5--------------|---------------------------- 5--|
G| 2---- 5---- 5-- 5---------- 6--|---- 5-------------- 7------ 7--|
D|---- 2-------------- 7------ 5--|---- 4------ 4------ 7------ 6--|
A|------------------------ 6------| 5---- 3------------------------|
E| 2------ 1------ 0--------------|---------------- 7------ 6------|
http://classicalguitartablature.blogspot.com/
E|------ 5-------- 5--------------|--------------------------------|
B| 7---- 5-------- 5--------------|---------------- 5---- 5------ 5|
G| 5------ 4------ 5--------------|---- 5---------- 4------ 2------|
D|---- 7------ 2------ 4------ 4--|---- 4------ 4------ 5------ 4--|
A|--------------------------------| 6------ 5------ 4------ 3------|
E| 5------ 3------ 2------ 0------|--------------------------------|
http://classicalguitartablature.blogspot.com/
E|------ 7------ 7----------------|---- 4---- 5---- 7---- 5-- 4----|
B|------ 6------ 6----------------|---- 3---- 3---- 6---- 5-- 3----|
G| 7---- 7------------ 7------ 7--| 2-- 0---- 4---- 4---- 2-- 1----|
D|---- 6------ 6------------------| 2------------------------------|
A|--------------------------------|---------------- 5---- 3---- 1--|
E| 7---- 6------ 5------ 4--------| 2---- 1---- 0------------------|
http://classicalguitartablature.blogspot.com/
E|-- 5----------------------------|--------------------------------|
B|-- 7----------------------------|--------------------------------|
G| 5------------------------------|--------------------------------|
D|--------------------------------|--------------------------------|
A| 0------------------------------|--------------------------------|
E|--------------------------------|--------------------------------|
http://classicalguitartablature.blogspot.com/
0 com

Summer Wind (Intermediate)

Frank Sinatra's tune fingerstyle chord melody guitar intermediate arrangement played in the key of C.
Summer Wind - Frank Sinatra - INTERMEDIATE ARRANGEMENT played in the key of C
http://classicalguitartablature.blogspot.com/
E|--------------------------------|--------------------------------|
B| 3-- 3------------ 1 0---- 0 1 3|-------------- 0----------------|
G| 2---------- 2---- 2-- 2--------| 2------ 2------ 2------ 0------|
D| 1------ 1-------- 1------------|---- 1------ 1------ 1------ 1--|
A|---------------- 3--------------|---------------- 3--------------|
E| 1------------------------------| 1------------------------------|
http://classicalguitartablature.blogspot.com/
E|--------------------------------|--------------------------------|
B| 3-- 3------------ 1 0---- 0 1 3|-------------- 0----------------|
G| 2---------- 2---- 2-- 2--------| 2------ 2------ 2------ 0------|
D| 1------ 1-------- 1------------|---- 1------ 1------ 1------ 1--|
A|---------------- 3--------------|---------------- 3--------------|
E| 1------------------------------| 1------------------------------|
http://classicalguitartablature.blogspot.com/
http://classicalguitartablature.blogspot.com/
E|--------------------------------|------------ 5------------------|
B| 3-- 3-------- 1-- 1 0---- 0 1 3|---- 3---------- 3--------------|
G| 0---------- 0-------- 2------ 4|---- 4---------- 4------ 4------|
D| 2---- 2---------------------- 5|---- 5-- 5---------- 5------ 5--|
A| 3------------------------------| 3------------------------------|
E|-------------- 3----------------|---------------- 3--------------|
http://classicalguitartablature.blogspot.com/
E|--------------------------------|------------ 5------------------|
B| 3-- 3-------- 1-- 1 0---- 0 1 3|---- 3---------- 3--------------|
G| 0---------- 0-------- 2------ 4|---- 4---------- 4------ 4------|
D| 2---- 2---------------------- 5|---- 5-- 5---------- 5------ 5--|
A| 3------------------------------| 3------------------------------|
E|-------------- 3----------------|---------------- 3--------------|
http://classicalguitartablature.blogspot.com/
E|--------------------------------|--------------------------------|
B| 5 5 5--------------------------| 5 5 5---------------- 5------ 5|
G| 4 4 4-------- 4------------ 0--| 3 3-- 3------------ 0 6------ 5|
D| 5 5 5-------- 5---- 5------ 3--| 5 5-- 2---- 2------ 2 5---- 5--|
A| 3------ 2------ 0--------------|---------------------- 6------ 5|
E|------------------------ 4------| 3------ 2------ 0--------------|
http://classicalguitartablature.blogspot.com/
E|--------------------------------|--------------------------------|
B|------ 6---- 3------------------|--------------------------------|
G|------ 3---- 2------------------| 2------------------ 5------ 0--|
D|---- 3-- 5-- 3------ 3------ 3--|---- 3------ 3------ 3------ 3--|
A|-------- 4------ 3------ 2------| 1------ 0----------------------|
E|--------------------------------|---------------- 4------ 3------|
http://classicalguitartablature.blogspot.com/
E| 1 1 1--------------------------|--------------------------------|
B| 3 3 3--------------------------| 6 6 6--------------------------|
G| 2 2 2-------------- 5------ 0--| 7 7 7-------------- 5------ 0--|
D|------------ 3------ 3------ 3--| 6 6 6------ 6------ 3------ 3--|
A|-------------- 5-------- 3------|--------------------------------|
E| 1------ 0----------------------| 7------ 6------ 5------ 4------|
http://classicalguitartablature.blogspot.com/
E| 3------ 1----------------------|--------------------------------|
B| 1---- 0---- 5------------------|--------------------------------|
G| 0------ 0-- 5------------------|---- 4---------------------- 5--|
D|---- 2------ 5------ 5------ 5--|------ 5---- 5------ 5------ 3--|
A|---------------------- 5--------| 3------ 2------ 0--------------|
E| 3------ 1------ 0--------------|------------------------ 4------|
http://classicalguitartablature.blogspot.com/
E| 3 3 3--------------------------| 3 3 3---------------- 5------ 3|
B| 3 3 3---------------------- 1--| 3---------- 5------ 1 5---- 5 6|
G| 3 3 3-------------- 3------ 3--| 3---------- 3------ 3 5---- 5 5|
D|------------ 2------ 3------ 2--|------------ 5------ 2------ 5--|
A|--------------------------------| 5------ 4---- 3----------------|
E| 3------ 2------ 1---- 0--------|------------------------ 6---- 5|
http://classicalguitartablature.blogspot.com/
E|-------------------- 1----------|--------------------------------|
B|-------- 6---------- 2-- 5-- 3--|--------------------------------|
G|-------- 5---------- 3-- 3-- 1--|------------ 1------ 4------ 4--|
D|---- 3------ 3---------- 2-- 3--|---- 3------ 3---- 6------ 6----|
A|--------------------------------|---------------- 5---- 4------ 3|
E|-------- 4------ 3------ 2------| 1------ 0----------------------|
http://classicalguitartablature.blogspot.com/
E|------------ 3------------------|-------------- 0---- 3---- 0----|
B|------------ 3-- 8-- 6----------|-------------- 1---- 3---- 1----|
G|---- 2------ 2-- 7-- 6----------| 5------------ 2---- 1---- 0----|
D|---- 2---------- 6-- 5------ 5--|---- 4------ 3---------------- 5|
A|-------- 2----------------------|--------------------------------|
E|---------------- 6------ 5------| 4------ 3---- 2---- 1---- 0----|
http://classicalguitartablature.blogspot.com/
E|--------------------------------|--------------------------------|
B| 3-- 1--------------------------|--------------------------------|
G| 5 5 1---------------------- 0 7|------------ 7------ 5------ 5--|
D|---- 3------ 3------ 3------ 2--|---- 7---- 6------ 5------ 3----|
A| 6------ 5------ 4------ 3------|--------------------------------|
E|--------------------------------| 7------ 6------ 5------ 4------|
http://classicalguitartablature.blogspot.com/
E|------------ 3-- 3-- 1----------|--------------------------------|
B|------------ 3-- 3-- 3----------|-------------- 5---- 8---- 5-- 3|
G|---- 0------ 2-- 1-- 1----------|---- 5------ 3 7---- 7---- 7-- 5|
D|---- 2---------------------- 0--|---- 3---- 5---- 7-- 6---- 5-- 3|
A|--------------------------------| 5------ 4----------------------|
E| 3------ 2------ 1------ 0------|---------------- 9-- 7---- 6----|
http://classicalguitartablature.blogspot.com/
E|--------------------------------|--------------------------------|
B|------------ 1------------------|--------------------------------|
G|---- 5------ 2------------------|--------------------------------|
D|---- 3------ 2------------------|--------------------------------|
A|--------------------------------|--------------------------------|
E| 5-- 4------ 3------------------|--------------------------------|
http://classicalguitartablature.blogspot.com/
0 com

Don't Explain (BASIC)

Billie Holiday's tune fingerstyle chord melody guitar BASIC arrangement played in the key of Em.
Don't Explain - BASIC ARRANGEMENT played in the key of Em
http://classicalguitartablature.blogspot.com/
E|10------ 8----------------------| 8------ 7------------ 7--------|
B| 8------ 8----------------------| 6-------------------- 5---- 5--|
G| 8-- 8------ 8------ 7------ 7--| 6-- 6------ 6------ 5------ 5--|
D|-- 7------ 7------ 6------ 6----|-- 5------ 5------ 4------ 4----|
A| 8------------ 7----------------| 6------------ 5----------------|
E|------------------------ 6------|--------------------------------|
http://classicalguitartablature.blogspot.com/
E| 3------------------------------|--------------------------------|
B| 3-------- 3---------- 5--------|------------------------------ 5|
G| 2------ 2---------- 4---- 4-- 3|---- 3---- 3---- 2-- 2---- 2-- 7|
D|---- 2------ 2---- 5-------- 5 2|---- 2---- 2---- 1-- 1---- 1----|
A|---------------- 4--------------|-------- 3-- 3-- 2--------------|
E| 3------------------------------| 2---------------------- 1-- 1 0|
http://classicalguitartablature.blogspot.com/
http://classicalguitartablature.blogspot.com/
E|------------------------ 7------| 2------------------------------|
B|------ 8---------------- 5-- 5--| 5------------------------------|
G|-------- 7------------------ 7--| 2------ 2---------- 2------ 2--|
D|---- 5------ 5------ 5----------|---- 4------ 4---- 4------ 1----|
A|---------------- 5--------------| 3-------------- 2--------------|
E|--------------------------------|------------------------ 1------|
http://classicalguitartablature.blogspot.com/
E|------------------------------ 2|------------------------------10|
B| 5------ 8------------ 7---- 8 2|---------------------- 0------ 8|
G| 7-------------------- 7------ 3|---- 3------ 3------ 2---- 2----|
D|---- 5------ 5------ 5---- 5----|-- 4------ 2------ 1-------- 1--|
A|---------------- 5------------ 4|-------- 3------ 2--------------|
E| 0------------------------------|--------------------------------|
http://classicalguitartablature.blogspot.com/
E|------ 8------------------------| 8------ 7------------ 7--------|
B|-------- 8----------------------| 6-------------------- 5---- 5--|
G| 8-- 8------ 8------ 7------ 7--| 6-- 6------ 6------ 5------ 5--|
D|-- 7------ 7------ 6------ 6----|-- 5------ 5------ 4------ 4----|
A| 8------------ 7----------------| 6------------ 5----------------|
E|---------------------- 6--------|--------------------------------|
http://classicalguitartablature.blogspot.com/
E| 2------------------------------|--------------------------------|
B| 3------------------ 0------ 0--|---- 8------ 4---------------- 5|
G| 4---- 4------------ 0------ 2--|---- 5------ 5------ 3------ 2 7|
D|---- 4------ 4---- 2------ 0----|-- 7------ 4------ 2------ 1----|
A|---------------- 3------ 2---- 6|------ 5------ 3------ 2--------|
E| 3------------------------------|------------------------------ 0|
http://classicalguitartablature.blogspot.com/
E|------------------------ 7------| 2------------------------------|
B|------ 8---------------- 5-- 5--| 5------------------------------|
G|-------- 7------------------ 7--| 2------ 2---------- 2------ 2--|
D|---- 5------ 5------ 5----------|---- 4------ 4---- 4------ 1----|
A|---------------- 5--------------| 3-------------- 2--------------|
E|--------------------------------|------------------------ 1------|
http://classicalguitartablature.blogspot.com/
E|------------------------------ 2|------------------------------10|
B| 5------ 8------------ 7---- 8 2|---------------------- 0------ 8|
G| 7-------------------- 7------ 3|---- 3------ 3------ 2---- 2----|
D|---- 5------ 5------ 5---- 5----|-- 4------ 2------ 1-------- 1--|
A|---------------- 5------------ 4|-------- 3------ 2--------------|
E| 0------------------------------|--------------------------------|
http://classicalguitartablature.blogspot.com/
E|------ 8------------------------| 8------ 7------------ 7--------|
B|-------- 8----------------------| 6-------------------- 5---- 5--|
G| 8-- 8------ 8------ 7------ 7--| 6-- 6------ 6------ 5------ 5--|
D|-- 7------ 7------ 6------ 6----|-- 5------ 5------ 4------ 4----|
A| 8------------ 7----------------| 6------------ 5----------------|
E|---------------------- 6--------|--------------------------------|
http://classicalguitartablature.blogspot.com/
E| 3------------------------------|------------------------------ 7|
B| 3-------- 3---------- 5--------|------------------------------ 8|
G| 2------ 2---------- 4---- 4-- 3|---- 3---- 3---- 2-- 2---- 2-- 7|
D|---- 2------ 2---- 5-------- 5 2|---- 2---- 2---- 1-- 1---- 1----|
A|---------------- 4--------------|-------- 3-- 3-- 2--------------|
E| 3------------------------------| 2---------------------- 1-- 1--|
http://classicalguitartablature.blogspot.com/
E|---- 7--10-- 7-- 8-- 8-------- 5|---- 5-- 8-- 5------------------|
B|---- 8-- 8-- 8-- 5-- 5------ 5 5|---- 5-- 5-- 5--12--------------|
G|---------------- 5-------- 5-- 5|----------------11--11------10--|
D|-- 9------ 9---------- 5--------|-- 5------ 5------12------ 9----|
A|---------------- 0------------ 5|----------------10--------------|
E| 0------------------------------|------------------------ 9------|
http://classicalguitartablature.blogspot.com/
E|-------- 7----------------------|------------------------------ 7|
B| 8-- 8-- 8-- 8--10--10-------- 7|---- 8--10--10--10-- 8-- 7---- 8|
G| 9-- 9------ 9-- 9-- 9------ 9 9|---- 9-- 9-- 9-- 8-- 8-- 8-- 8 7|
D|-- 9------ 9----10--------10----|-- 8------ 8------ 7------ 7----|
A|---------------- 9------ 9------|--------------------------------|
E| 8---------------------------- 8|---------------- 7--------------|
http://classicalguitartablature.blogspot.com/
E|---- 7--10-- 7-- 8-- 8-------- 5|---- 5-- 8-- 5------------------|
B|---- 8-- 8-- 8-- 5-- 5------ 5 5|---- 5-- 5-- 5--12--------------|
G|---------------- 5-------- 5-- 5|----------------11--11------10--|
D|-- 9------ 9------------ 5------|-- 5------ 5------12------ 9----|
A|---------------- 0------------ 5|----------------10--------------|
E| 0------------------------------|------------------------ 9------|
http://classicalguitartablature.blogspot.com/
E|-------- 7----------------------|-------------- 2----------------|
B| 8-- 8-- 8-- 8--10--10-------- 7|---- 8--10-- 8 4----------------|
G| 9-- 9------ 9-- 9-- 9------ 9--| 9-- 9-- 9-- 9------ 2------ 2--|
D|-- 9------ 9----10--------10----|-- 8------ 8------ 4------ 1----|
A|---------------- 9------ 9------|---------------- 2--------------|
E| 8------------------------------| 8---------------------- 1------|
http://classicalguitartablature.blogspot.com/
E|------------------------ 7------| 2------------------------------|
B| 5------ 8-------------- 5-- 5--| 5------------------------------|
G| 7------ 7------------------ 7--| 2------ 2---------- 2------ 2--|
D|---- 5------ 5------ 5----------|---- 4------ 4---- 4------ 1----|
A|---------------- 5--------------| 3-------------- 2--------------|
E| 0------------------------------|------------------------ 1------|
http://classicalguitartablature.blogspot.com/
E|------------------------------ 2|------------------------------10|
B| 5------ 8------------ 7---- 8 2|---------------------- 0------ 8|
G| 7-------------------- 7------ 3|---- 3------ 3------ 2---- 2----|
D|---- 5------ 5------ 5---- 5----|-- 4------ 2------ 1-------- 1--|
A|---------------- 5------------ 4|-------- 3------ 2--------------|
E| 0------------------------------|--------------------------------|
http://classicalguitartablature.blogspot.com/
E|------ 8------------------------| 8------ 7------------ 7--------|
B|-------- 8----------------------| 6-------------------- 5---- 5--|
G| 8-- 8------ 8------ 7------ 7--| 6-- 6------ 6------ 5------ 5--|
D|-- 7------ 7------ 6------ 6----|-- 5------ 5------ 4------ 4----|
A| 8------------ 7----------------| 6------------ 5----------------|
E|---------------------- 6--------|--------------------------------|
http://classicalguitartablature.blogspot.com/
E| 3------------------------------|--------------------------------|
B| 3-------- 3---------- 5--------|--------------------------------|
G| 2------ 2---------- 4---- 4-- 3|---- 3---- 3---- 2-- 2---- 2----|
D|---- 2------ 2---- 5-------- 5 2|---- 2---- 2---- 1-- 1---- 1----|
A|---------------- 4--------------|-------- 3-- 3-- 2--------------|
E| 3------------------------------| 2---------------------- 1-- 1--|
http://classicalguitartablature.blogspot.com/
E|--------------------------------|--------------------------------|
B|-- 2----------------------------|--------------------------------|
G| 0------------------------------|--------------------------------|
D| 2------------------------------|--------------------------------|
A|--------------------------------|--------------------------------|
E| 0------------------------------|--------------------------------|
http://classicalguitartablature.blogspot.com/
0 com

Black Coffee (Intermediate)

Bluesy jazz tune fingerstyle chord melody guitar intermediate arrangement played in the key of F.
Black Coffee - INTERMEDIATE ARRANGEMENT played in the key of F
http://classicalguitartablature.blogspot.com/
E| 3-- 5------ 8-- 5--------------|------------ 4 3----------------|
B| 3------11------ 6-- 6----------|-------- 3------ 4------ 6-- 6--|
G| 3------ 8------ 7-- 7------ 7--|---- 5-- 3------ 4-- 4-- 7-- 7--|
D|-- 3------10-------- 6---- 6----|-- 8------ 3------ 3---- 8-- 7--|
A|-------- 9------ 8------ 7---- 6|-------- 5------ 4--------------|
E| 3------------------------------|------------------------ 8------|
http://classicalguitartablature.blogspot.com/
E|--------------------------------|--------------------------------|
B|---------------- 6-- 6------ 6--|---------------------------- 1--|
G|---- 7 6---- 6-- 5-- 5------ 5--| 3-- 3------ 3------ 0-- 1-- 1--|
D|-- 7------ 5---- 5 5------ 4----| 3-- 3---- 1------ 0------ 0----|
A|--------------------------------|--------------------------------|
E| 7------ 6------ 5---- 4--------| 3------ 2---- 1-------- 0------|
http://classicalguitartablature.blogspot.com/
http://classicalguitartablature.blogspot.com/
E| 1-- 1--------------------------| 1-- 1------------------------ 1|
B| 4-- 4-- 6------ 4-- 1----------| 2---- 6------ 4------------ 1 4|
G| 2-- 2-- 5-- 5-- 3-- 3------ 3--| 2---- 5---- 5 4---- 4---- 3----|
D|---------- 7---- 2-- 2---- 2----|-- 1---- 4-------- 2------ 2----|
A|-------- 6------ 4------ 3------| 2------------------------------|
E| 1------------------------------|------ 5-------- 4---- 2--------|
http://classicalguitartablature.blogspot.com/
E|---- 1-- 1----------------------|------------------------------ 4|
B|-------- 1-- 1-- 4-- 4 4------ 6|---- 6-- 6-- 1 4------ 6------ 3|
G| 2------ 3------ 3-- 3 4---- 5 5|---- 6-- 7-- 3 2---- 2------ 5 1|
D|-- 1------ 1------ 2------ 2----|-- 3 5-- 7-- 2---- 4------ 4----|
A|--------------------------------|------------ 3 2-------------- 1|
E| 1------ 3------ 2---- 4--------| 5-- 6-- 7------------ 5--------|
http://classicalguitartablature.blogspot.com/
E|--------------------------------|---- 8---------- 4--------------|
B|---- 3--------------------------|---- 9----11---- 6-- 6---- 3----|
G|---- 3------ 3------ 3------ 5--| 7-- 8----10---- 3-- 6---- 1----|
D|---- 3---- 3------ 1------ 4----| 6-------- 8-------- 5---- 0----|
A|--------------------------------|---------------- 5-- 6----------|
E|-------- 4------ 3------ 5------| 6-- 8---- 9-------------- 0----|
http://classicalguitartablature.blogspot.com/
E|--------------------------------|------------------------------ 3|
B|--------------------------------|--------------------------------|
G| 5-- 5------ 5------ 3------ 3--|---- 0------ 0------ 5------ 5--|
D|-- 7------ 7------ 2------ 2----|-- 3------ 1------ 4------ 4----|
A| 8------ 6------ 4---- 3--------| 2------ 1----------------------|
E|--------------------------------|---------------- 5------ 4------|
http://classicalguitartablature.blogspot.com/
E|---- 5------ 8-- 5--------------|------------ 4 3----------------|
B| 3------11------ 6-- 6----------|-------- 3------ 4------ 6-- 6--|
G| 3------ 8------ 7-- 7------ 7--|---- 5-- 3------ 4-- 4-- 7-- 7--|
D|-- 3------10-------- 6---- 6----|-- 8------ 3------ 3---- 8-- 7--|
A|-------- 9------ 8------ 7---- 6|-------- 5------ 4--------------|
E| 3------------------------------|------------------------ 8------|
http://classicalguitartablature.blogspot.com/
E|--------------------------------|--------------------------------|
B|---------------- 6-- 6------ 6--|---------------------------- 1--|
G|---- 7 6---- 6-- 5-- 5------ 5--| 3-- 3------ 3------ 0-- 1-- 1--|
D|-- 7------ 5---- 5 5------ 4----| 3-- 3---- 1------ 0------ 0----|
A|--------------------------------|--------------------------------|
E| 7------ 6------ 5---- 4--------| 3------ 2---- 1-------- 0------|
http://classicalguitartablature.blogspot.com/
E| 1-- 1--------------------------| 1-- 1------------------------ 1|
B| 4-- 4-- 6------ 4-- 1----------| 2---- 6------ 4------------ 1 4|
G| 2-- 2-- 5-- 5-- 3-- 3------ 3--| 2---- 5---- 5 4---- 4---- 3----|
D|---------- 7---- 2-- 2---- 2----|-- 1---- 4-------- 2------ 2----|
A|-------- 6------ 4------ 3------| 2------------------------------|
E| 1------------------------------|------ 5-------- 4---- 2--------|
http://classicalguitartablature.blogspot.com/
E|---- 1-- 1----------------------|------------------------------ 4|
B|-------- 1-- 1-- 4-- 4 4------ 6|---- 6-- 6-- 1 4------ 6------ 3|
G| 2------ 3------ 3-- 3 4---- 5 5|---- 6-- 7-- 3 2---- 2------ 5 1|
D|-- 1------ 1------ 2------ 2----|-- 3 5-- 7-- 2---- 4------ 4----|
A|--------------------------------|------------ 3 2-------------- 1|
E| 1------ 3------ 2---- 4--------| 5-- 6-- 7------------ 5--------|
http://classicalguitartablature.blogspot.com/
E|--------------------------------|---- 8---------- 4--------------|
B|---- 3--------------------------|---- 9----11---- 6-- 6---- 3----|
G|---- 3------ 3------ 3------ 5--| 7-- 8----10---- 3-- 6---- 1----|
D|---- 3---- 3------ 1------ 4----| 6-------- 8-------- 5---- 0----|
A|--------------------------------|---------------- 5-- 6----------|
E|-------- 4------ 3------ 5------| 6-- 8---- 9-------------- 0----|
http://classicalguitartablature.blogspot.com/
E|--------------------------------|------------------------------ 3|
B|--------------------------------|--------------------------------|
G| 5-- 5------ 5------ 3------ 3--|---- 0------ 0------ 5------ 5--|
D|-- 7------ 7------ 2------ 2----|-- 3------ 1------ 4------ 4----|
A| 8------ 6------ 4---- 3--------| 2------ 1----------------------|
E|--------------------------------|---------------- 5------ 4------|
http://classicalguitartablature.blogspot.com/
E|---- 5------ 8-- 5--------------|------------ 4 3----------------|
B| 3------11------ 6-- 6----------|-------- 3------ 4------ 6-- 6--|
G| 3------ 8------ 7-- 7------ 7--|---- 5-- 3------ 4-- 4-- 7-- 7--|
D|-- 3------10-------- 6---- 6----|-- 8------ 3------ 3---- 8-- 7--|
A|-------- 9------ 8------ 7---- 6|-------- 5------ 4--------------|
E| 3------------------------------|------------------------ 8------|
http://classicalguitartablature.blogspot.com/
E|--------------------------------|------------------------------ 6|
B|---------------- 6-- 6------ 6--|------------------------------ 6|
G|---- 7 6---- 6-- 5-- 5------ 5--| 3-- 3---- 4---- 5-- 5------ 8 6|
D|-- 7------ 5---- 5 5------ 4----| 3-- 3---- 3---- 5-- 5---- 7----|
A|--------------------------------|--------------------------------|
E| 7------ 6------ 5---- 4--------| 3------ 4-- 4-- 5------ 7------|
http://classicalguitartablature.blogspot.com/
E|---- 8------------------ 8------| 4------------------------------|
B|--------11-- 9--11------ 5------| 1-- 6---------------------- 6--|
G|------------ 8------ 9-- 6-- 6--| 1---------- 3------ 5---- 5----|
D|-- 6----1010------11------ 5----|---- 5---- 5------ 3-- 4-- 4----|
A|------------------------ 6------|--------------------------------|
E| 6------ 8---- 9----------------| 1------ 3------ 4------ 5------|
http://classicalguitartablature.blogspot.com/
E| 6-- 8-- 6-- 8-- 9------11------| 8-------------------------- 8--|
B| 6------ 6------11------ 9------| 8------------------------------|
G| 6------ 5------ 9-- 9-- 9-- 9--| 7-- 7------ 7------10----------|
D|-- 5------ 4------11------ 9----|-- 7------ 7------10------10----|
A|----------------10------ 9------| 8---- 7------------------------|
E| 6------ 4----------------------|----------------10------ 8------|
http://classicalguitartablature.blogspot.com/
E| 9-- 9 9---- 9 9------------12--| 9-- 9---------------------- 6--|
B| 9---- 8---- 8 7----------1010--| 9-- 9-------------- 7------ 7--|
G|-- 8------ 6---- 6-- 6----10----| 8-- 8------ 8------ 6----------|
D|------------------ 5------10----|---------- 8------ 8------ 8----|
A|------------------------10------| 9------ 8---- 6----------------|
E| 7---- 6-------- 5--------------|---------------------- 9--------|
http://classicalguitartablature.blogspot.com/
E| 9-- 9-- 9-- 9-------------- 9--| 8 8 8-- 8-- 8------------------|
B| 9-- 9-- 8-- 8-- 2-------- 9----|111111--10--10-- 1---------- 1--|
G| 8 8---- 6 6---- 4-- 4----10----|101010-- 8 8-------- 0------ 1--|
D|------------------ 5------ 9----|------------------ 0------ 0----|
A|------------------------11------|10------ 9----------------------|
E| 7------ 6------ 5--------------|---------------- 1------ 0------|
http://classicalguitartablature.blogspot.com/
E| 1-- 1--------------------------| 1-- 1------------------------ 1|
B| 4-- 4-- 6------ 4-- 1----------| 2---- 6------ 4------------ 1 4|
G| 2-- 2-- 5-- 5-- 3-- 3------ 3--| 2---- 5---- 5 4---- 4---- 3----|
D|---------- 7---- 2-- 2---- 2----|-- 1---- 4-------- 2------ 2----|
A|-------- 6------ 4------ 3------| 2------------------------------|
E| 1------------------------------|------ 5-------- 4---- 2--------|
http://classicalguitartablature.blogspot.com/
E|---- 1-- 1----------------------|------------------------------ 4|
B|-------- 1-- 1-- 4-- 4 4------ 6|---- 6-- 6-- 1 4------ 6------ 3|
G| 2------ 3------ 3-- 3 4---- 5 5|---- 6-- 7-- 3 2---- 2------ 5 1|
D|-- 1------ 1------ 2------ 2----|-- 3 5-- 7-- 2---- 4------ 4----|
A|--------------------------------|------------ 3 2-------------- 1|
E| 1------ 3------ 2---- 4--------| 5-- 6-- 7------------ 5--------|
http://classicalguitartablature.blogspot.com/
E|--------------------------------|---- 8---------- 4--------------|
B|---- 3--------------------------|---- 9----11---- 6-- 6---- 3----|
G|---- 3------ 3------ 3------ 5--| 7-- 8----10---- 3-- 6---- 1----|
D|---- 3---- 3------ 1------ 4----| 6-------- 8-------- 5---- 0----|
A|--------------------------------|---------------- 5-- 6----------|
E|-------- 4------ 3------ 5------| 6-- 8---- 9-------------- 0----|
http://classicalguitartablature.blogspot.com/
E|--------------------------------|---------- 5 811----11------10--|
B| 1------------------------------|---- 3 6------10----------11----|
G| 0-- 0 2---- 2------ 3------ 4--|---- 5 7------ 8----------11----|
D|-- 0---- 1 1------ 3------ 3----|-- 5--------------10------10----|
A|--------------------------------|--------------------------------|
E| 1------ 2---- 3-------- 4------| 5---- 6------ 8------10--------|
http://classicalguitartablature.blogspot.com/
E| 6-- 5-- 6-- 8------------------|-------- 1-- 4-- 3--------------|
B| 8------ 6------10-- 6----------|---- 3-- 3-- 3-- 6------ 6---- 6|
G|-- 7------ 7---- 8-- 3------ 3--|---- 3-- 3-- 4-- 3------ 7---- 7|
D|----------------10-- 3---- 3----|-- 1-------------- 3---- 8---- 7|
A| 7------ 8------ 9--------------|---------------- 5-- 4----------|
E|------------------------ 3------| 2------ 1-- 0---------- 8---- 7|
http://classicalguitartablature.blogspot.com/
E|---------------------------- 1--|--------------------------------|
B|-------------- 6---- 6 6---- 3--|--------------------------------|
G|-------------- 6---- 5 3---- 2--|--------------------------------|
D|-------------- 5---- 5 3--------|--------------------------------|
A|--------------------------------|--------------------------------|
E|-------------- 6---- 5-- 3-- 1--|--------------------------------|
http://classicalguitartablature.blogspot.com/
0 com

The End Of A Love Affair (BASIC)

Jazz standard fingerstyle chord melody guitar BASIC arrangement played in the key of G.
The End Of A Love Affair - BASIC ARRANGEMENT played in the key of G
http://classicalguitartablature.blogspot.com/
E|--------------------------------|---------------------------- 5--|
B| 3---- 3-------- 3---------- 3--| 3------------------ 0-- 8------|
G| 3---- 3---- 5-- 5---------- 5--| 4------------------ 0-- 7------|
D|---- 5-------------- 5------ 4--|---- 4------ 4------ 0-- 5------|
A| 6-------------- 5--------------|--------------------------------|
E|------------------------ 4------| 3------ 2---- 0-------- 6------|
http://classicalguitartablature.blogspot.com/
E| 7---------- 7 7---- 5----------| 2------------------------------|
B| 5------ 5-- 5 5---- 5------ 8--| 3---------- 3---------- 5-- 3--|
G| 5------ 5------ 5-- 5-- 5-- 5--| 4---- 4------------ 5-- 5-- 5--|
D|---- 5------------------ 5------|---- 4-------------- 4------ 4--|
A|---------------- 5--------------|-------------- 5----------------|
E| 5------------------------------| 3---------------------------- 4|
http://classicalguitartablature.blogspot.com/
http://classicalguitartablature.blogspot.com/
E| 5------------ 5---- 3-------- 0|--------------------------------|
B| 3---------- 3 3---- 3------ 6--| 1---------------------- 3-- 1--|
G| 3---- 3------ 3---- 3----------| 2---- 2------ 3---- 3-- 3-- 3--|
D|---- 3------------------ 3------|---- 2------ 2------ 2-- 2-- 2--|
A|---------------- 3--------------|---------------- 3--------------|
E| 3------------------------------| 1-------------------------- 2--|
http://classicalguitartablature.blogspot.com/
E|------------------------ 6-- 8--|--------------------------------|
B| 8------ 8-- 8-- 8------ 8-- 8--| 8---- 8---- 8 8------ 6--------|
G| 8------ 8------ 7------ 6-- 6--| 8---- 8------ 7------ 7---- 8--|
D|---- 6-- 6-- 6-- 6-- 6----------| 6-- 6 6---- 6-- 6-- 6----------|
A| 8---------------------- 7------| 8------------------------------|
E|-------- 7------ 6--------------|-------- 7------ 6--------------|
http://classicalguitartablature.blogspot.com/
E|--------------------------------|---------------------------- 5--|
B| 3---- 3-------- 3---------- 3--| 3------------------ 0-- 8------|
G| 3---- 3---- 5-- 5---------- 5--| 4------------------ 0-- 7------|
D|---- 5-------------- 5------ 4--|---- 4------ 4------ 0-- 5------|
A| 6-------------- 5--------------|--------------------------------|
E|------------------------ 4------| 3------ 2---- 0-------- 6------|
http://classicalguitartablature.blogspot.com/
E| 7---------- 7 7---- 5----------| 2------------------------------|
B| 5------ 5-- 5 5---- 5------ 8--| 3---------- 3---------- 5-- 3--|
G| 5------ 5------ 5-- 5-- 5-- 5--| 4---- 4------------ 5-- 5-- 5--|
D|---- 5------------------ 5------|---- 4-------------- 4------ 4--|
A|---------------- 5--------------|-------------- 5----------------|
E| 5------------------------------| 3---------------------------- 4|
http://classicalguitartablature.blogspot.com/
E| 5------------ 5---- 3-------- 0|--------------------------------|
B| 3---------- 3 3---- 3------ 6--| 1---------------------- 3-- 1--|
G| 3---- 3------ 3---- 3----------| 2---- 2------ 3---- 3-- 3-- 3--|
D|---- 3------------------ 3------|---- 2------ 2------ 2-- 2-- 2--|
A|---------------- 3--------------|---------------- 3--------------|
E| 3------------------------------| 1-------------------------- 2--|
http://classicalguitartablature.blogspot.com/
E|------------------------ 6-- 8--|--------------------------------|
B| 8------ 8-- 8-- 8------ 8-- 8--| 8---- 8---- 8 8------ 6--------|
G| 8------ 8------ 7------ 6-- 6--| 8---- 8------ 7------ 7---- 8--|
D|---- 6-- 6-- 6-- 6-- 6----------| 6-- 6 6---- 6-- 6-- 6----------|
A| 8---------------------- 7------| 8------------------------------|
E|-------- 7------ 6--------------|-------- 7------ 6--------------|
http://classicalguitartablature.blogspot.com/
E|--------------------------------|--------------------------------|
B| 3---- 3-------- 3---------- 3--| 3------------------ 0------ 7--|
G| 3---- 3---- 5-- 5---------- 5--| 4------------------ 0 9--------|
D|---- 5-------------- 5------ 4--|---- 4------ 4------ 0-- 7------|
A| 6-------------- 5--------------|--------------------------------|
E|------------------------ 4------| 3------ 2------ 0------ 7------|
http://classicalguitartablature.blogspot.com/
E|-------------- 7----------------|--------------------------------|
B| 8---- 5---- 8 5-------- 8-- 5--| 8------ 8-------------- 5-- 7--|
G| 7---- 7---- 7 6-------- 5-- 5--| 7------ 7------ 6------ 5-- 5--|
D|---- 5 5---- 5------ 5-- 7-- 7--|---- 5-- 6-- 6-- 5-- 5-- 7-- 7--|
A| 7---------------------- 6------| 7---------------------- 6------|
E|------ 6-------- 5--------------|-------- 6------ 5--------------|
http://classicalguitartablature.blogspot.com/
E|-------------- 7----------------|--------------------------------|
B| 8---- 5---- 8 5-------- 8-- 5--| 8---------------------- 7-- 8--|
G| 7---- 7---- 7 6-------- 5-- 5--| 7-- 7------ 7------ 6-- 6------|
D|---- 5 5---- 5------ 5-- 7-- 7--|-- 5------ 6------ 5---- 5------|
A| 7---------------------- 6------| 7---------------------- 6------|
E|------ 6-------- 5--------------|-------- 6------ 5--------------|
http://classicalguitartablature.blogspot.com/
E| 5---------- 5-- 9------ 7------| 7------ 9--10--12----------12--|
B| 7------ 7------ 7----------10--| 7--------------10------ 9------|
G| 6------ 6------ 7-- 7----------| 7-- 7----------11--11--11------|
D|---- 7------------ 7------------|-- 7--------------12----12------|
A| 5-------------- 9--------------|--------------------------------|
E|--------------------------------| 7-------------- 0--------------|
http://classicalguitartablature.blogspot.com/
E|12------------------------------|--------------------------------|
B|12------12----------------------|------------------------ 8--10--|
G|12--12------12--------12--------| 5-- 5---- 6-------- 5-- 7-- 7--|
D|--------------------11------11--| 5-- 5---- 5-------- 4-- 7-- 9--|
A|-------------- 0----------------|-------- 6-- 6-- 5--------------|
E| 0------------------------------| 5---------------------- 8-- 7--|
http://classicalguitartablature.blogspot.com/
E| 7---------- 7 7---- 5----------| 2------------------------------|
B| 5------ 5-- 5 5---- 5------ 8--| 3---------- 3---------- 5-- 3--|
G| 5------ 5------ 5-- 5-- 5-- 5--| 4---- 4------------ 5-- 5-- 5--|
D|---- 5------------------ 5------|---- 4-------------- 4------ 4--|
A|---------------- 5--------------|-------------- 5----------------|
E| 5------------------------------| 3---------------------------- 4|
http://classicalguitartablature.blogspot.com/
E| 5------------ 5---- 3-------- 0|--------------------------------|
B| 3---------- 3 3---- 3------ 6--| 1---------------------- 3-- 1--|
G| 3---- 3------ 3---- 3----------| 2---- 2------ 3---- 3-- 3-- 3--|
D|---- 3------------------ 3------|---- 2------ 2------ 2-- 2-- 2--|
A|---------------- 3--------------|---------------- 3--------------|
E| 3------------------------------| 1-------------------------- 2--|
http://classicalguitartablature.blogspot.com/
E|------------------------ 6-- 8--|--------------------------------|
B| 8------ 8-- 8-- 8------ 8-- 8--| 8---- 8---- 8 8------ 6--------|
G| 8------ 8------ 7------ 6-- 6--| 8---- 8------ 7------ 7---- 8--|
D|---- 6-- 6-- 6-- 6-- 6----------| 6-- 6 6---- 6-- 6-- 6----------|
A| 8---------------------- 7------| 8------------------------------|
E|-------- 7------ 6--------------|-------- 7------ 6--------------|
http://classicalguitartablature.blogspot.com/
E|--------------------------------|10------------------------------|
B| 3---- 3-------- 3---------- 3--|10--------------------13----12 8|
G| 3---- 3---- 5-- 5---------- 5--|10------10----------1010--------|
D|---- 5-------------- 5------ 4--|----10------10------10----------|
A| 6-------------- 5--------------|----------------10--------------|
E|------------------------ 4------|10------------------------------|
http://classicalguitartablature.blogspot.com/
E| 7---- 7---------------------- 8|-------------------- 7----------|
B|------ 8----10--12--12----10-- 8|--------------------10--10-- 8--|
G| 9-- 9 9-------- 9-- 9---- 9-- 8|------ 8------------ 8----------|
D|----------------10--10---- 8----|---- 7------ 7------------------|
A|----------------10-------- 9-- 8|---------------- 9--------------|
E| 8------------------------------|--------------------------------|
http://classicalguitartablature.blogspot.com/
E| 2------ 2-- 0-- 2------ 2-- 0 5|--------------------------------|
B| 3------ 3-- 3-- 3------ 3-- 3 5|---------------------- 8---- 7--|
G| 4------ 4-- 4-- 4-- 4-- 4-- 4 6|-------- 6---- 6------ 7---- 6--|
D|---- 4--------------------------|---- 5------ 5------ 5 5---- 5--|
A|---------------- 5--------------|--------------------------------|
E| 3---------------------------- 6|---------------- 0--------------|
http://classicalguitartablature.blogspot.com/
E|--------------------------------|------------ 812----------------|
B| 5---- 5------ 5------ 5---- 3--| 5---- 8---- 812------------ 7--|
G| 5---- 6---- 7 5------ 4---- 4--| 5---- 6---- 611------------ 5--|
D|---- 5 5------ 5---- 5 3---- 3--|---- 5 6------------10------ 4--|
A|------ 6------ 5----------------|-------- 6----------------------|
E| 5---------------------- 4------| 5------------10------ 4--------|
http://classicalguitartablature.blogspot.com/
E| 3------------------------------|--------------------------------|
B| 3------------------ 3------ 3--| 3------------------------------|
G| 2---------- 2------ 3------ 3--| 2------------------------------|
D|---- 1-------------- 2------ 2--| 2------------------------------|
A|--------------------------------|--------------------------------|
E| 1-------------- 2------------ 3|--------------------------------|
http://classicalguitartablature.blogspot.com/