To celebrate the anniversary, I am giving you (finally...) : iPhone LickByNeck !!!!!!

A Kiss To Build A Dream On (BASIC)

Louis Armstrong's tune fingerstyle chord melody guitar BASIC arrangement played in the key of A.
A Kiss to Build a Dream on - Louis Armstrong - BASIC ARRANGEMENT played in the key of A
http://classicalguitartablature.blogspot.com/
E| 0------------------ 0------ 0--|---------------------- 0--------|
B| 0-- 0------ 2-- 3------ 3 2 0--|------------ 2 2---- 2-- 2-- 2 0|
G| 2-- 2---------- 3---- 3---- 2--|------------ 2 2---- 2-- 1-- 1 2|
D|-------- 0------ 2------ 2------|---- 0-------- 0---- 0------ 0--|
A| 2------------------------------| 2---------------------------- 0|
E|---------------- 2--------------|-------- 1------ 0------ 0------|
http://classicalguitartablature.blogspot.com/
E|--------------------------------|------------------------------ 5|
B|--------------------------------| 6---- 7------ 8-------- 9---- 5|
G|---- 2------ 2---------- 2------| 3-- 3------ 4------ 5-- 7---- 4|
D|-------- 2---------- 2------ 2--|-- 5------ 6-- 7-- 7---- 7-- 7--|
A|--------------------------------| 3------ 4------ 5--------------|
E|---------------- 0--------------|------------------------ 0------|
http://classicalguitartablature.blogspot.com/
http://classicalguitartablature.blogspot.com/
E|-------------- 4---- 5 4---- 2--| 5-------------- 5-- 5-- 4-- 2--|
B|---- 5------ 7-- 3---- 3---- 3--| 5-- 5------ 7-- 4------ 4-- 4--|
G|---------------- 2-- 2 2---- 2--| 4-- 4---------- 2-- 2-- 2-- 2--|
D|------ 4------------------------|-------- 4----------------------|
A| 0-------------- 2--------------| 4-------------- 3--------------|
E|--------------------------------|--------------------------------|
http://classicalguitartablature.blogspot.com/
E| 0------------------ 0------ 0--|--------------------------------|
B| 0-- 0------ 2-- 3------ 3 2----|---- 3--------------------------|
G| 2-- 2---------- 3---- 3--------|---- 2------ 2-------------- 1--|
D|-------- 0------ 2------ 2------|---- 0---- 0-------- 0------ 0--|
A| 2---------------------------- 2|--------------------------------|
E|---------------- 2--------------|-------- 1------ 0------ 0------|
http://classicalguitartablature.blogspot.com/
E| 0------------------ 0------ 0--|---------------------- 0--------|
B| 0-- 0------ 2-- 3------ 3 2 0--|------------ 2 2---- 2-- 2-- 2 0|
G| 2-- 2---------- 3---- 3---- 2--|------------ 2 2---- 2-- 1-- 1 2|
D|-------- 0------ 2------ 2------|---- 0-------- 0---- 0------ 0--|
A| 2------------------------------| 2---------------------------- 0|
E|---------------- 2--------------|-------- 1------ 0------ 0------|
http://classicalguitartablature.blogspot.com/
E|--------------------------------|------------------------------ 5|
B|--------------------------------| 6---- 7------ 8-------- 9---- 5|
G|---- 2------ 2---------- 2------| 3-- 3------ 4------ 5-- 7---- 4|
D|-------- 2---------- 2------ 2--|-- 5------ 6-- 7-- 7---- 7-- 7--|
A|--------------------------------| 3------ 4------ 5--------------|
E|---------------- 0--------------|------------------------ 0------|
http://classicalguitartablature.blogspot.com/
E|-------------- 4---- 5 4---- 2--| 5-------------- 5-- 5-- 4-- 2--|
B|---- 5------ 7-- 3---- 3---- 3--| 5-- 5------ 7-- 4------ 4-- 4--|
G|---------------- 2-- 2 2---- 2--| 4-- 4---------- 2-- 2-- 2-- 2--|
D|------ 4------------------------|-------- 4----------------------|
A| 0-------------- 2--------------| 4-------------- 3--------------|
E|--------------------------------|--------------------------------|
http://classicalguitartablature.blogspot.com/
E| 0------------------ 0------ 0--|--------------------------------|
B| 0-- 0------ 2-- 3------ 3 2----|---- 3--------------------------|
G| 2-- 2---------- 3---- 3--------|---- 2------ 2-------------- 1--|
D|-------- 0------ 2------ 2------|---- 0---- 0-------- 0------ 0--|
A| 2---------------------------- 2|--------------------------------|
E|---------------- 2--------------|-------- 1------ 0------ 0------|
http://classicalguitartablature.blogspot.com/
E| 0------------------ 0------ 0--|---------------------- 0--------|
B| 0-- 0------ 2-- 3------ 3 2 0--|------------ 2 2---- 2-- 2-- 2 0|
G| 2-- 2---------- 3---- 3---- 2--|------------ 2 2---- 2-- 1-- 1 2|
D|-------- 0------ 2------ 2------|---- 0-------- 0---- 0------ 0--|
A| 2------------------------------| 2---------------------------- 0|
E|---------------- 2--------------|-------- 1------ 0------ 0------|
http://classicalguitartablature.blogspot.com/
E|--------------------------------|-------------------- 5-- 5-- 5--|
B|--------------------------------| 6---- 7------ 8-------- 6------|
G|---- 2------ 2---------- 2------| 3-- 3------ 4---------- 6-- 6--|
D|-------- 2---------- 2------ 2--|-- 5------ 6------ 7------------|
A|--------------------------------| 3------ 4------ 5------ 6------|
E|---------------- 0--------------|--------------------------------|
http://classicalguitartablature.blogspot.com/
E| 5------------------------------|--------------------------------|
B| 6--------------------12--------| 8-- 8--------------------------|
G| 5-- 5------ 5--------10--------| 7---------- 7------ 6------ 6--|
D|---- 7---- 4--------12------12--| 5-- 5---- 6-------- 5---- 5----|
A| 5--------------10--------------| 7---------------------- 6------|
E|-------- 4----------------------|-------- 6------ 5--------------|
http://classicalguitartablature.blogspot.com/
E|------------------------ 3-- 3--| 0------------------------------|
B|---------------- 6------ 4-- 4--| 0-------------------------- 1 3|
G| 5-- 5------ 5-- 4------ 4-- 4--| 0------ 0------------ 2--------|
D| 3-- 3---- 3-------- 3----------|---- 2-------------- 2----------|
A| 5---------------------- 4------| 3------------------------------|
E|-------- 4------ 3--------------|---------- 3 2-- 1--------------|
http://classicalguitartablature.blogspot.com/
E|--------------------------------|--------------------------------|
B|-------------- 5---- 5----------| 1-- 1--------------------------|
G| 2---------- 2 7---- 7----------| 2---------- 2---------- 0------|
D|---- 3---- 0-- 6---- 6------ 6--| 2------ 2---------- 2------ 2--|
A| 2------------------------------| 0------------------------------|
E|-------- 1------ 0------ 6------|---------------- 3--------------|
http://classicalguitartablature.blogspot.com/
E|--------------------------------|------------------------------ 5|
B| 0-- 0------ 0-- 0-- 0---- 0-- 0|------------------------------ 5|
G| 2-- 2------ 2 2---- 2------ 2 2|------------ 2------ 1------ 4 4|
D| 2-- 2------ 2-- 1-- 1------ 1--| 0-- 0---- 0-------- 0------ 2--|
A|---------------- 2--------------| 2------------------------------|
E| 2------------------------------|-------- 1------ 0------ 4------|
http://classicalguitartablature.blogspot.com/
E|-------------- 4---- 5 4---- 2--| 5-------------- 5-- 5-- 4-- 2--|
B|---- 5------ 7-- 3---- 3---- 3--| 5-- 5------ 7-- 4------ 4-- 4--|
G|---------------- 2-- 2 2---- 2--| 4-- 4---------- 2-- 2-- 2-- 2--|
D|------ 4------------------------|-------- 4----------------------|
A| 0-------------- 2--------------| 4-------------- 3--------------|
E|--------------------------------|--------------------------------|
http://classicalguitartablature.blogspot.com/
E| 0------------------ 0------ 0--|--------------------------------|
B| 0-- 0------ 2-- 3------ 3 2----|---- 3--------------------------|
G| 2-- 2---------- 3---- 3--------|---- 2------ 2-------------- 1--|
D|-------- 0------ 2------ 2------|---- 0---- 0-------- 0------ 0--|
A| 2---------------------------- 2|--------------------------------|
E|---------------- 2--------------|-------- 1------ 0------ 0------|
http://classicalguitartablature.blogspot.com/
E| 0------------------ 0------ 0--|---------------------- 0--------|
B| 0-- 0------ 2-- 3------ 3 2 0--|------------ 2 2---- 2-- 2-- 2 0|
G| 2-- 2---------- 3---- 3---- 2--|------------ 2 2---- 2-- 1-- 1 2|
D|-------- 0------ 2------ 2------|---- 0-------- 0---- 0------ 0--|
A| 2------------------------------| 2---------------------------- 0|
E|---------------- 2--------------|-------- 1------ 0------ 0------|
http://classicalguitartablature.blogspot.com/
E|--------------------------------|--------------------------------|
B|--------------------------------| 6---- 7------ 8-------- 9------|
G|---- 2------ 2---------- 2------| 3-- 3------ 4------ 5-- 7------|
D|-------- 2---------- 2------ 2--|-- 5------ 6-- 7-- 7---- 7-- 7--|
A|--------------------------------| 3------ 4------ 5------------ 0|
E|---------------- 0--------------|------------------------ 0------|
http://classicalguitartablature.blogspot.com/
E|-- 5----------------------------|--------------------------------|
B| 5------------------------------|--------------------------------|
G| 4------------------------------|--------------------------------|
D| 4------------------------------|--------------------------------|
A|--------------------------------|--------------------------------|
E|--------------------------------|--------------------------------|
http://classicalguitartablature.blogspot.com/

0 ความคิดเห็น:

แสดงความคิดเห็น