To celebrate the anniversary, I am giving you (finally...) : iPhone LickByNeck !!!!!!

Aren't Yu Glad You Are You (Intermediate)

Jazz tune fingerstyle chord melody guitar intermediate arrangement played in the key of F.
Aren't You Glad You're You - INTERMEDIATE ARRANGEMENT played in the key of F.
http://classicalguitartablature.blogspot.com/
E| 6----10---------------- 3------| 1------------------------------|
B| 8----10-------- 5------ 4------| 1-------------------------- 1--|
G| 7------11------ 3------ 3------| 2-- 2------ 3-- 3---------- 1--|
D|---- 8------10------ 5------ 2--|------------ 3------ 2------ 0--|
A|-------- 0----------------------|--------------------------------|
E| 6-------------- 3------ 2------| 1------ 3------ 2------ 0------|
http://classicalguitartablature.blogspot.com/
E|---------------------- 5--------|--------10------10--------------|
B| 1------ 3---- 6------ 6--------| 8------ 8------12--------------|
G| 2------ 0------ 5--------------| 7------ 7------10--------------|
D|---- 2------ 2------ 7------ 7--|---- 8------ 8------12------12--|
A|---------------- 5--------------|-------- 0------11------10------|
E| 1------ 0-------------- 8------| 6------------------------------|
http://classicalguitartablature.blogspot.com/
http://classicalguitartablature.blogspot.com/
E|12----------10-- 8--------------| 5------------------------------|
B|11---------- 8-- 5------11------| 6------ 6---- 6----------------|
G| 9---------- 7-- 5------ 9------| 5------ 6---- 5------------ 4--|
D|----11-------------- 8------11--|---- 7-- 5-- 5------ 3------ 6--|
A| 9------ 8------ 7------ 9------| 8------ 6---- 5-------- 4------|
E|--------------------------------|--------------------------------|
http://classicalguitartablature.blogspot.com/
E|12--12------10---------------- 5|--------------------------------|
B|10--11------1113------11------ 5|-------- 6------ 6--------------|
G| 9--12------1212------12--------|---- 5-- 3------ 5---------- 4--|
D|--------------------10------11--|------------ 3------ 5------ 6--|
A|--------------------------------|--------------------------------|
E| 8------10------11----12--------| 1------ 3------ 5------ 4------|
http://classicalguitartablature.blogspot.com/
E|--------------------------------|--------------------------------|
B| 5------ 8------------ 8--------|--------------------------------|
G| 5------ 5------ 7---- 7------ 5|-------------------- 5------ 5--|
D|---- 5------ 5------ 5------ 5--|---- 8------ 8------ 8------ 8--|
A|--------------------------------|-------- 5------ 6------ 7------|
E| 3------ 5------ 6------ 7---- 8|--------------------------------|
http://classicalguitartablature.blogspot.com/
E|---------------------- 5--------|--------10------10--------------|
B| 1------ 3---- 6------ 6--------| 8------ 8------12--------------|
G| 2------ 0------ 5--------------| 7------ 7------10--------------|
D|---- 2------ 2------ 7------ 7--|---- 8------ 8------12------12--|
A|---------------- 5--------------|-------- 0------11------10------|
E| 1------ 0-------------- 8------| 6------------------------------|
http://classicalguitartablature.blogspot.com/
E|12----------10 9-------- 7---- 5|-------------- 0--------------12|
B|10----------12-- 7------ 7---- 2|-------- 5------ 2------------10|
G|----11------10-- 7------ 7---- 2|-------- 4------ 2---------- 211|
D|-------------------- 7------ 6--|---- 2------ 6------ 2------ 0--|
A| 9------11------ 0------------ 4|------ 5------------------------|
E|------------------------ 7------|---------------- 0------ 1------|
http://classicalguitartablature.blogspot.com/
E|----12------10 9------ 7--------| 5-------------- 0--------------|
B|----10------1012------ 6--------| 5------ 5------ 2--------------|
G|------------10 9------ 7--------| 4------ 4------ 2--------------|
D|--------------------12------ 6--|---- 4-- 2-- 2------ 2------ 2--|
A| 9------10----11----------------|--------------------------------|
E|------------------------ 6------| 5------ 4------ 2------ 0------|
http://classicalguitartablature.blogspot.com/
E| 5------ 9------------ 7------ 5|-------------- 8------ 9--------|
B| 7------ 9------ 9---- 9------ 5|--------------11------ 9--------|
G| 6------ 9------ 9---- 7--------| 4------------------ 9-- 8------|
D|---- 7------ 9------ 9------ 9--|---- 4------ 4-------------- 7--|
A| 6------------------------------|--------------10-------- 8------|
E|--------10------ 9------ 7------| 5------ 4----------------------|
http://classicalguitartablature.blogspot.com/
E|10--------------10------ 8----11|------------------------10---- 8|
B|13------13------10------ 7----13|------------------------10------|
G|12------10------ 8------ 8------|----12------12------ 8------ 8--|
D|----10------12------10------ 7--|-------------------- 8----------|
A|--------------------------------|13------12------10------ 9---- 8|
E|11------10------ 8------ 7------|--------------------------------|
http://classicalguitartablature.blogspot.com/
E|-------- 6------ 8------ 6------| 9---------------------- 8------|
B| 6------ 8------ 8------ 6------|11---------------------- 8------|
G|---- 7------ 7-- 5---------- 4--|10-------------- 6------ 6------|
D|-------------------- 5----------|----11------11------ 5------ 5--|
A|-------- 7------ 6------ 5------|--------------------------------|
E|--------------------------------| 9------ 8------ 6------ 5------|
http://classicalguitartablature.blogspot.com/
E| 6------ 4----------------------| 8---------------------------- 5|
B| 4------ 4------11------ 9------|11---------------------------- 6|
G| 5------ 3------ 8------ 8------|10-------------- 7---------- 6 5|
D|---- 5------ 3------ 8--10--10--|---- 8------ 8------ 8------ 5--|
A|---------------- 8--------------|--------------------------------|
E| 4------ 3--------------11------|10---- 9-------- 8------ 6------|
http://classicalguitartablature.blogspot.com/
E|---- 810---- 8------------------|--------------------------------|
B|------10----10----10-- 6------ 3|-------- 8-- 1------------------|
G|------10---------- 7-- 6------ 3|-------- 5-- 3------------------|
D|---------------------------- 5--|---- 3-- 5-- 2------ 2------ 2--|
A|--------10---- 8------ 6------ 5|-------- 6----------------------|
E| 5------------------------------|---------------- 0------ 2------|
http://classicalguitartablature.blogspot.com/
E|---------------------- 5--------|--------10------10--------------|
B| 1------ 3---- 6------ 6--------| 8------ 8------12--------------|
G| 2------ 0------ 5--------------| 7------ 7------10--------------|
D|---- 2------ 2------ 7------ 7--|---- 8------ 8------12------12--|
A|---------------- 5--------------|-------- 0------11------10------|
E| 1------ 0-------------- 8------| 6------------------------------|
http://classicalguitartablature.blogspot.com/
E|12----------10-- 8--------------| 5------------------------------|
B|11---------- 8-- 5------11------| 6------ 6---- 6----------------|
G| 9---------- 7-- 5------ 9------| 5------ 6---- 5------------ 4--|
D|----11-------------- 8------11--|---- 7-- 5-- 5------ 3------ 6--|
A| 9------ 8------ 7------ 9------| 8------ 6---- 5-------- 4------|
E|--------------------------------|--------------------------------|
http://classicalguitartablature.blogspot.com/
E|12--12------10------------------|--------10----10-------------- 6|
B|10--11------1113------11------10|--------13------11------------ 8|
G| 9--12------1212------12--------| 9------12----------11------11--|
D|--------------------10------11--|----10------10------------------|
A|--------------------------------| 8------------------------------|
E| 8------10------11----12--------|--------11----10------ 8--------|
http://classicalguitartablature.blogspot.com/
E|------10---------------- 3------| 1---------------------------- 6|
B|------10-------- 5------ 4------| 1---------------------------- 8|
G| 7------11------ 3------ 3------| 2-- 2------ 3-- 4---------- 5--|
D|---- 8------10------ 5------ 2--|------------ 3------ 3------ 3--|
A|-------- 0----------------------|--------------------------------|
E| 6-------------- 3------ 2------| 1------ 3------ 4------ 5------|
http://classicalguitartablature.blogspot.com/
E|------10---------------- 3------| 1------------------------------|
B|------10-------- 5------ 4------| 1-------------------------- 1--|
G| 7------11------ 3------ 3------| 2-- 2------ 3-- 3---------- 1--|
D|---- 8------10------ 5------ 2--|------------ 3------ 2------ 0--|
A|-------- 0----------------------|--------------------------------|
E| 6-------------- 3------ 2------| 1------ 3------ 2------ 0------|
http://classicalguitartablature.blogspot.com/
E|--------------------------------|--------------------------------|
B|--------------------------------|--------------------------------|
G|-- 2----------------------------|--------------------------------|
D| 2------------------------------|--------------------------------|
A|--------------------------------|--------------------------------|
E| 1------------------------------|--------------------------------|
http://classicalguitartablature.blogspot.com/

0 ความคิดเห็น:

แสดงความคิดเห็น