To celebrate the anniversary, I am giving you (finally...) : iPhone LickByNeck !!!!!!

Cocktails For Two (Intermediate)

Spike Jomnes' tune fingerstyle chord melody guitar Intermediate arrangement played in the key of G.
Cocktails For Two-Spike Jones-Intermediate ARRANGEMENT played in the key of G
http://classicalguitartablature.blogspot.com/
E|--------------------------------|--------------------------------|
B|------------ 3-- 4-- 6-- 5------| 5------------------------------|
G|-------- 4------------------ 4--| 4---------- 4-------------- 5--|
D|---- 5--------------------------|---- 5------ 5------ 5------ 7--|
A|--------------------------------|------------------------ 6------|
E|--------------------------------| 3------ 2------ 0--------------|
http://classicalguitartablature.blogspot.com/
E|-------------------- 2-- 0------|--------------------------------|
B|------------ 3-- 4------ 0-- 0--| 3------------------------------|
G|---- 0-- 4-- 4-- 2-- 2-- 2-- 2--| 5---------- 5------ 2------ 2--|
D|---- 0-- 3-- 3-- 4---------- 0--|---- 5------ 5------ 2------ 2--|
A| 5------ 4------ 3------ 2------|--------------------------------|
E|--------------------------------| 5------ 4------ 3------ 2------|
http://classicalguitartablature.blogspot.com/
http://classicalguitartablature.blogspot.com/
E|------------ 0------ 7-- 5------| 0---------- 3-- 2--------------|
B|-------- 1------ 8-- 8-- 5-- 8--| 0---------- 4-- 3-- 3------ 1--|
G|---- 2---------- 5------ 5------| 0---------- 2-- 2-- 2------ 1--|
D|---- 2---------- 5--------------|---- 2-------------- 2------ 1--|
A|---------------- 6------ 5------| 4------ 3------ 2------ 1------|
E| 1------ 0----------------------|--------------------------------|
http://classicalguitartablature.blogspot.com/
E|------------ 3-- 2------------ 2|--------------------------------|
B| 5---------- 6-- 1---------- 3 3|---- 3 3---- 3------ 3------ 0--|
G| 5---------- 5------ 2------ 2 4|---- 4 3---- 4------ 4------ 0--|
D|---- 5---------------------- 2--|---- 5-- 5-- 5------ 5----------|
A|--------------------------------|-------- 6------ 5------ 4------|
E| 5------ 4------ 3---- 2--------| 0------------------------------|
http://classicalguitartablature.blogspot.com/
E|-------------------- 2----------|--------------------------------|
B|-------- 0-- 3-- 4------ 5------| 5------------------------------|
G|---- 0-- 1-- 1-- 2------ 4-- 4--| 4---------- 4-------------- 5--|
D|---- 0-- 0-- 0-- 4------ 4------|---- 5------ 5------ 5------ 7--|
A| 2------ 1------ 0--------------|------------------------ 6------|
E|------------------------ 4------| 3------ 2------ 0--------------|
http://classicalguitartablature.blogspot.com/
E|-------------------- 2-- 0------|--------------------------------|
B|------------ 3-- 4------ 0-- 0--| 3------------------------------|
G|---- 0-- 4-- 4-- 2-- 2-- 2-- 2--| 5---------- 5------ 2------ 2--|
D|---- 0-- 3-- 3-- 4---------- 0--|---- 5------ 5------ 2------ 2--|
A| 5------ 4------ 3------ 2------|--------------------------------|
E|--------------------------------| 5------ 4------ 3------ 2------|
http://classicalguitartablature.blogspot.com/
E|------------ 0------ 7-- 5------| 0---------- 3-- 2--------------|
B|-------- 1------ 8-- 8-- 5-- 8--| 0---------- 4-- 3-- 3------ 1--|
G|---- 2---------- 5------ 5------| 0---------- 2-- 2-- 2------ 1--|
D|---- 2---------- 5--------------|---- 2-------------- 2------ 1--|
A|---------------- 6------ 5------| 4------ 3------ 2------ 1------|
E| 1------ 0----------------------|--------------------------------|
http://classicalguitartablature.blogspot.com/
E|------------ 3-- 2------------ 5|--------------------------------|
B| 5---------- 6-- 1---------- 3 3|---- 3 3---- 3------------------|
G| 5---------- 5------ 2------ 2 4|---- 4 4---- 4------ 7------ 7--|
D|---- 5---------------------- 2--|------ 3---- 3------ 5------ 5--|
A|--------------------------------|--------------------------------|
E| 5------ 4------ 3---- 2--------| 3---- 5-------- 6------ 7------|
http://classicalguitartablature.blogspot.com/
E|---------------- 7---- 7---- 7--| 7------------ 5----------------|
B|--------12------10---- 6---- 8--| 8------------ 5----------------|
G| 7------10------10---- 7---- 8--| 9------------ 5----------------|
D|---- 712----12------------------|---- 9------ 9------ 5------ 5--|
A|--------------------------------|---------------- 0--------------|
E| 8------10------ 9---- 8---- 7--| 8------ 7-------------- 3------|
http://classicalguitartablature.blogspot.com/
E|------ 5---- 4 7---- 5 3---- 2--| 5------------------------------|
B|---- 3 7------ 5---- 5 4---- 4--| 8---------- 8-- 8--------------|
G|---- 2 5------ 5---- 5 2---- 2--| 7---------- 7-- 6---------- 2--|
D|---- 1--------------------------|---- 5---------- 5-- 5------ 2--|
A|-------- 6------ 5---- 3--------|--------------------------------|
E| 1------------------------------| 7---- 6-------- 5------ 3------|
http://classicalguitartablature.blogspot.com/
E|-------------- 5------ 2---- 0 3|--------------------------------|
B|------ 8-- 7-- 8---- 8 3---- 3 5|---- 5------------------ 7-- 5--|
G|---- 2-- 7-- 7 5---- 5 4---- 4 4|---- 4------ 4------ 4-- 7-- 7--|
D|---- 0-- 5-- 5------ 7----------|------------------------ 6-- 6--|
A|---------------- 6------ 5---- 4|------ 3-------- 2--------------|
E| 2------ 0----------------------|------------------------ 6------|
http://classicalguitartablature.blogspot.com/
E|--------------------------------| 0------------------------------|
B| 5---------- 3-- 3---------- 2--| 1---------- 3-- 3--------------|
G| 5---------- 5-- 2---------- 2--| 2---------- 3-- 3------ 4------|
D|---- 5------ 3------ 2------ 2--|---- 2------ 5------ 5-- 5------|
A|--------------------------------|-------- 7------ 6------ 5-- 4--|
E| 5------ 4------ 3------ 2------| 1------------------------------|
http://classicalguitartablature.blogspot.com/
E|-------------------- 2----------|--------------------------------|
B|-------- 0-- 3-- 4------ 5------| 5------------------------------|
G|---- 0-- 1-- 1-- 2------ 4-- 4--| 4---------- 4-------------- 5--|
D|---- 0-- 0-- 0-- 4------ 4------|---- 5------ 5------ 5------ 7--|
A| 2------ 1------ 0--------------|------------------------ 6------|
E|------------------------ 4------| 3------ 2------ 0--------------|
http://classicalguitartablature.blogspot.com/
E|-------------------- 2-- 0------|--------------------------------|
B|------------ 3-- 4------ 0-- 0--| 3------------------------------|
G|---- 0-- 4-- 4-- 2-- 2-- 2-- 2--| 5---------- 5------ 2------ 2--|
D|---- 0-- 3-- 3-- 4---------- 0--|---- 5------ 5------ 2------ 2--|
A| 5------ 4------ 3------ 2------|--------------------------------|
E|--------------------------------| 5------ 4------ 3------ 2------|
http://classicalguitartablature.blogspot.com/
E|------------ 0------ 7-- 5------| 0---------- 3-- 2--------------|
B|-------- 1------ 8-- 8-- 5-- 8--| 0---------- 4-- 3-- 3------ 1--|
G|---- 2---------- 5------ 5------| 0---------- 2-- 2-- 2------ 1--|
D|---- 2---------- 5--------------|---- 2-------------- 2------ 1--|
A|---------------- 6------ 5------| 4------ 3------ 2------ 1------|
E| 1------ 0----------------------|--------------------------------|
http://classicalguitartablature.blogspot.com/
E|------------ 3-- 2------------ 7|------------ 3------------------|
B| 5---------- 6-- 1---------- 3 8|-- 8-- 8---- 3------------------|
G| 5---------- 5------ 2------ 2 8|-- 7-- 6---- 4------------------|
D|---- 5---------------------- 2--|-- 6-- 8------------------------|
A|------------------------------ 8|-- 7-- 6---- 5------------------|
E| 5------ 4------ 3---- 2--------|--------------------------------|
http://classicalguitartablature.blogspot.com/

0 ความคิดเห็น:

แสดงความคิดเห็น