To celebrate the anniversary, I am giving you (finally...) : iPhone LickByNeck !!!!!!

Days And Nights Waiting (Intermediate)

Keith Jarrett's fingerstyle chord melody guitar intermediate arrangement played in the key of C.
Days And Nights Waiting- Intermediate Arrangement played in the key of C.
http://classicalguitartablature.blogspot.com/
E|--------------------------------|------------ 2------------------|
B|10---------------------------- 5|-------------------- 5----------|
G| 9------ 9-------------- 9------| 2---- 2-------------------- 4 2|
D|---- 7------ 7------ 8------ 8--|---- 4---------------- 4--------|
A| 9---------------------------- 2|--------------------------------|
E|---------------- 8--------------|-------------- 2-------------- 0|
http://classicalguitartablature.blogspot.com/
E|------ 0------------------------|--------------------------------|
B|---------------- 0--------------| 3------------------------------|
G|-------------- 0-------- 0------|-------- 2-------------- 4------|
D|---- 2------ 2------ 2------ 2--|---- 4------ 4------ 3------ 3--|
A|---------------- 0--------------| 5------------------------------|
E|--------------------------------|---------------- 3--------------|
http://classicalguitartablature.blogspot.com/
http://classicalguitartablature.blogspot.com/
E|10------------------------------|----------------10--------------|
B| 8------------------------------|10--------------13------13------|
G| 8------------------12------12--| 8--------------10------10------|
D|---- 8------ 8------10------10--|----10------ 8------10--------10|
A|--------------------------------| 8------10------11------12------|
E| 8------10------11------12------|--------------------------------|
http://classicalguitartablature.blogspot.com/
E| 5--10------ 8-------------- 8--| 5------------------------------|
B| 6-- 6-------- 6---- 8----------| 5------------------------------|
G| 7-- 8------ 8 3---- 7----------| 6------------------ 2------ 0--|
D|---------------- 3--------------|---- 5------ 5------ 5------ 0--|
A|-------- 0-------------- 8------| 7------ 6------ 4------ 2------|
E| 6-------------- 3--------------|--------------------------------|
http://classicalguitartablature.blogspot.com/
E| 5------------------------------|------------ 2------ 0----------|
B| 7------------------------------| 5---------- 3------ 3----------|
G| 6-------------- 2--------------| 4------ 3-- 2------ 4------ 4 2|
D|---- 7------ 7-- 2-- 2------ 2--|---- 4-- 2----------------------|
A|--------------------------------| 5------ 4------ 2--------------|
E| 5------ 4------ 2------ 0------|---------------------- 5--------|
http://classicalguitartablature.blogspot.com/
E|--------------------------------|--------------------------------|
B|--------------------------------| 3------------------------------|
G|------------ 2 4----------------| 2------------------ 2------ 0--|
D|---- 2 1---- 1------ 5------ 5--|---- 4------ 2------ 2------ 3--|
A|------------------------ 6------| 5------ 4------ 3------ 2------|
E| 3------ 2------ 0--------------|--------------------------------|
http://classicalguitartablature.blogspot.com/
E|10------------------------------|----------------10--------------|
B| 8------------------------------|10--------------13------13------|
G| 8------------------12------12--| 8--------------10------10------|
D|---- 8------ 8------10------10--|----10------ 8------10--------10|
A|--------------------------------| 8------10------11------12------|
E| 8------10------11------12------|--------------------------------|
http://classicalguitartablature.blogspot.com/
E| 5--10------ 8-------------- 8--| 5------------------------------|
B| 6-- 6-------- 6---- 8----------| 5------------------------------|
G| 7-- 8------ 8 3---- 7----------| 6------------------ 2------ 0--|
D|---------------- 3--------------|---- 5------ 5------ 5------ 0--|
A|-------- 0-------------- 8------| 7------ 6------ 4------ 2------|
E| 6-------------- 3--------------|--------------------------------|
http://classicalguitartablature.blogspot.com/
E| 5------------------------------|------------ 2------ 0----------|
B| 7------------------------------| 5---------- 3------ 3----------|
G| 6-------------- 2--------------| 4------ 3-- 2------ 4------ 4 2|
D|---- 7------ 7-- 2-- 2------ 2--|---- 4-- 2----------------------|
A|--------------------------------| 5------ 4------ 2--------------|
E| 5------ 4------ 2------ 0------|---------------------- 5--------|
http://classicalguitartablature.blogspot.com/
E|--------------------------------|--------------------------------|
B|--------------------------------| 3------------------------------|
G|------------ 2 4----------------| 2------------------ 2------ 0--|
D|---- 2 1---- 1------ 5------ 5--|---- 4------ 2------ 2------ 3--|
A|------------------------ 6------| 5------ 4------ 3------ 2------|
E| 3------ 2------ 0--------------|--------------------------------|
http://classicalguitartablature.blogspot.com/
E|--------------------------------|------------10 8----------------|
B| 6------------------------------| 3---------- 810--------10------|
G| 8---------- 8------ 5----------| 5-- 8------ 8 8-------- 7------|
D|---- 8------ 6------ 5------ 5--| 3-- 8--------------10-- 9-- 9--|
A|--------------------------------|--------10---- 8-------- 7------|
E| 8------ 7------ 6------ 5------| 4------------------------------|
http://classicalguitartablature.blogspot.com/
E|--------------------------------|------------10-- 8------ 5------|
B| 6------------------------------| 3-------------- 8------ 6------|
G| 6---------- 4------ 3----------| 1-- 8---------- 6------ 5------|
D|---- 4------ 6------ 4------ 4--| 4-- 8-------------- 5------ 4--|
A| 6------ 5------ 4------ 3------| 2-------------- 0--------------|
E|--------------------------------|-------- 6-------------- 4------|
http://classicalguitartablature.blogspot.com/
E| 1------------------------------|------------ 3-------- 0--------|
B| 4------------------------------| 3-- 4-------- 3------ 2--------|
G| 3------------------ 8----------| 4-- 2---------- 2---- 0--------|
D|---- 1------ 1------ 7------ 7--| 3------------------ 1------ 2--|
A|---------------- 8------ 6------| 5------ 3------ 2------ 1------|
E| 3------ 2----------------------|--------------------------------|
http://classicalguitartablature.blogspot.com/
E|---------------- 3--------------|---------------- 6--------------|
B| 6-------------- 0--------------| 9-------------- 5--------------|
G| 5-------------- 0--------------| 6------------------ 6------ 7--|
D|---- 3------ 3------ 3------ 3--| 6-- 6------ 6-------------- 6--|
A|--------------------------------| 7------ 6------ 4--------------|
E| 5------ 4------ 3------ 1------|------------------------ 7------|
http://classicalguitartablature.blogspot.com/
E|10------------------------------|----------------10--------------|
B| 8------------------------------|10--------------13------13------|
G| 8------------------12------12--| 8--------------10------10------|
D|---- 8------ 8------10------10--|----10------ 8------10--------10|
A|--------------------------------| 8------10------11------12------|
E| 8------10------11------12------|--------------------------------|
http://classicalguitartablature.blogspot.com/
E| 5--10------ 8-------------- 8--| 5------------------------------|
B| 6-- 6-------- 6---- 8----------| 5------------------------------|
G| 7-- 8------ 8 3---- 7----------| 6------------------ 2------ 0--|
D|---------------- 3--------------|---- 5------ 5------ 5------ 0--|
A|-------- 0-------------- 8------| 7------ 6------ 4------ 2------|
E| 6-------------- 3--------------|--------------------------------|
http://classicalguitartablature.blogspot.com/
E| 5------------------------------|------------ 2------ 0----------|
B| 7------------------------------| 5---------- 3------ 3----------|
G| 6-------------- 2--------------| 4------ 3-- 2------ 4------ 4 2|
D|---- 7------ 7-- 2-- 2------ 2--|---- 4-- 2----------------------|
A|--------------------------------| 5------ 4------ 2--------------|
E| 5------ 4------ 2------ 0------|---------------------- 5--------|
http://classicalguitartablature.blogspot.com/
E|--------------------------------|--------------------------------|
B|--------------------------------| 3------------------------------|
G|------------ 2 4----------------| 2------------------ 2------ 0--|
D|---- 2 1---- 1------ 5------ 5--|---- 4------ 2------ 2------ 3--|
A|------------------------ 6------| 5------ 4------ 3------ 2------|
E| 3------ 2------ 0--------------|--------------------------------|
http://classicalguitartablature.blogspot.com/
E|--------------------------------|--------------------------------|
B| 3------------------------------|--------------------------------|
G| 2------------------------------|--------------------------------|
D| 4------------------------------|--------------------------------|
A|--------------------------------|--------------------------------|
E| 5------------------------------|--------------------------------|
http://classicalguitartablature.blogspot.com/

0 ความคิดเห็น:

แสดงความคิดเห็น