To celebrate the anniversary, I am giving you (finally...) : iPhone LickByNeck !!!!!!

Dear Old Stockholm (Intermediate)

Jazz standard fingerstyle chord melody guitar intermediate arrangement played in the key of Cm.
Dear Old Stockholm - Intermediate Arrangement played in the key of Dm.
http://classicalguitartablature.blogspot.com/
E|------------ 0------------------|--------------------------------|
B|------------ 3------------------|------------ 5------ 5----------|
G|---- 5------ 2------ 2-- 2-- 2--|---- 2-- 1-- 2------ 2----------|
D|-- 3---- 5-------- 3------ 3----|-- 3---- 3-- 3------ 5------ 5--|
A| 5------ 4------ 3------ 2------| 0------ 1------ 2------ 4------|
E|--------------------------------|--------------------------------|
http://classicalguitartablature.blogspot.com/
E|------------ 0------------------|--------------------------------|
B|------------ 3------------------|------------ 5------ 5----------|
G|---- 5------ 2------ 2-- 2-- 2--|---- 2-- 1-- 2------ 2----------|
D|-- 3---- 5-------- 3------ 3----|-- 3---- 3-- 3------ 5------ 5--|
A| 5------ 4------ 3------ 2------| 0------ 1------ 2------ 4------|
E|--------------------------------|--------------------------------|
http://classicalguitartablature.blogspot.com/
http://classicalguitartablature.blogspot.com/
E|------------------------ 3-- 5--|----------------------10----12--|
B| 3---------- 5 6-------- 3-- 3--|----------------------13----10--|
G| 5---------- 7-- 7------ 4-- 3--|---------- 2-------- 012----10--|
D|---- 3------ 7------ 7-- 3------|---- 2---- 0-------- 2----------|
A| 5------------------------------|--------------------------------|
E|-------- 8------ 7------ 5------| 3---- 1---- 1 0--------11------|
http://classicalguitartablature.blogspot.com/
E|--------10-- 8---------- 6-- 5--|--------------------------------|
B|--------10-- 8---------- 8-- 6--|--------------------------------|
G|--------10-- 7---------- 7-- 5--|---- 5------ 5-- 4---- 2-- 2----|
D|----10-------------- 7----------|---------- 4-------- 3-- 1 1----|
A|--------------------------------|--------------------------------|
E|10------ 8------ 7------ 6------| 5------ 4------ 3------ 2-- 2--|
http://classicalguitartablature.blogspot.com/
E|---- 3-- 2-- 3-- 6 8 6----------|-------------------- 5----------|
B|---- 3-- 4-- 4-- 6------10-- 8--| 6------------------ 6-- 6-- 5--|
G|---- 3-- 2-- 2-- 7------ 7------| 7---------- 6------ 5-- 5-- 7--|
D|-------------------------- 8----|---- 7------ 8---------- 7-- 5--|
A|---------------- 8------ 7------| 8------ 7------ 5--------------|
E| 3------ 2----------------------|------------------------ 8---- 6|
http://classicalguitartablature.blogspot.com/
E|--------------------------------|--------------------------------|
B|--------------------------------|-------------------- 4----------|
G|---- 7------ 7------ 3------ 2--|---- 6------ 6------ 4----------|
D|-- 5------ 5------ 2------ 0----|-- 5------ 5---- 5---------- 5--|
A|--------------------------------|-------- 6------ 4------ 6------|
E|-------- 5---- 3-------- 1------| 0------------------------------|
http://classicalguitartablature.blogspot.com/
E|------------ 0------------------|--------------------------------|
B|------------ 3------------------|------------ 5------ 5----------|
G|---- 5------ 2------ 2-- 2-- 2--|---- 2-- 1-- 2------ 2----------|
D|-- 3---- 5-------- 3------ 3----|-- 3---- 3-- 3------ 5------ 5--|
A| 5------ 4------ 3------ 2------| 0------ 1------ 2------ 4------|
E|--------------------------------|--------------------------------|
http://classicalguitartablature.blogspot.com/
E|------------ 0------------------|--------------------------------|
B|------------ 3------------------|------------ 5------ 5----------|
G|---- 5------ 2------ 2-- 2-- 2--|---- 2-- 1-- 2------ 2----------|
D|-- 3---- 5-------- 3------ 3----|-- 3---- 3-- 3------ 5------ 5--|
A| 5------ 4------ 3------ 2------| 0------ 1------ 2------ 4------|
E|--------------------------------|--------------------------------|
http://classicalguitartablature.blogspot.com/
E|------------------------ 3-- 5--|----------------------10----12--|
B| 3---------- 5 6-------- 3-- 3--|----------------------13----10--|
G| 5---------- 7-- 7------ 4-- 3--|---------- 2-------- 012----10--|
D|---- 3------ 7------ 7-- 3------|---- 2---- 0-------- 2----------|
A| 5------------------------------|--------------------------------|
E|-------- 8------ 7------ 5------| 3---- 1---- 1 0--------11------|
http://classicalguitartablature.blogspot.com/
E|--------10-- 8---------- 6-- 5--|--------------------------------|
B|--------10-- 8---------- 8-- 6--|--------------------------------|
G|--------10-- 7---------- 7-- 5--|---- 5------ 5-- 4---- 2-- 2----|
D|----10-------------- 7----------|---------- 4-------- 3-- 1 1----|
A|--------------------------------|--------------------------------|
E|10------ 8------ 7------ 6------| 5------ 4------ 3------ 2-- 2--|
http://classicalguitartablature.blogspot.com/
E|---- 3-- 2-- 3-- 6 8 6----------|-------------------- 5----------|
B|---- 3-- 4-- 4-- 6------10-- 8--| 6------------------ 6-- 6-- 5--|
G|---- 3-- 2-- 2-- 7------ 7------| 7---------- 6------ 5-- 5-- 7--|
D|-------------------------- 8----|---- 7------ 8---------- 7-- 5--|
A|---------------- 8------ 7------| 8------ 7------ 5--------------|
E| 3------ 2----------------------|------------------------ 8---- 6|
http://classicalguitartablature.blogspot.com/
E|--------------------------------|--------------------------------|
B|--------------------------------|-------------------- 4----------|
G|---- 7------ 7------ 3------ 2--|---- 6------ 6------ 4----------|
D|-- 5------ 5------ 2------ 0----|-- 5------ 5---- 5---------- 5--|
A|--------------------------------|-------- 6------ 4------ 6------|
E|-------- 5---- 3-------- 1------| 0------------------------------|
http://classicalguitartablature.blogspot.com/
E|------------ 0------------------|--------------------------------|
B|------------ 3------------------|------------ 5------ 5----------|
G|---- 5------ 2------ 2-- 2-- 2--|---- 2-- 1-- 2------ 2----------|
D|-- 3---- 5-------- 3------ 3----|-- 3---- 3-- 3------ 5------ 5--|
A| 5------ 4------ 3------ 2------| 0------ 1------ 2------ 4------|
E|--------------------------------|--------------------------------|
http://classicalguitartablature.blogspot.com/
E|------------ 0------------------|--------------------------------|
B|------------ 3------------------|------------ 5------ 5----------|
G|---- 5------ 2------ 2-- 2-- 2--|---- 2-- 1-- 2------ 2----------|
D|-- 3---- 5-------- 3------ 3----|-- 3---- 3-- 3------ 5------ 5--|
A| 5------ 4------ 3------ 2------| 0------ 1------ 2------ 4------|
E|--------------------------------|--------------------------------|
http://classicalguitartablature.blogspot.com/
E|---------------------------- 5--|---- 5--------------------------|
B|---- 6-------- 6---- 5-- 6-- 3--|---- 3------ 8------------------|
G| 2-- 7-------- 6---- 6-- 5-- 3--|---- 3------ 5------ 5------ 5--|
D| 3-- 7------ 7-- 5-- 5-- 4------|------------------ 8------ 8----|
A| 3------------------------------|---------------- 7------ 5------|
E|-------- 7------ 6------ 4------| 3---- 1------------------------|
http://classicalguitartablature.blogspot.com/
E|---------------------------- 8--|---- 6---------- 9--------------|
B|---- 6-------- 6---- 5-- 6--11--|---- 5---- 6----11--13----------|
G| 2-- 7-------- 6---- 6-- 5-- 9--|---- 6---- 7---- 9--12----------|
D| 3-- 7------ 7-- 5-- 5-- 4------|---------- 7--------11------11--|
A| 3------------------------------|10------------------------------|
E|-------- 7------ 6------ 4------|---- 5---- 7---- 9------11------|
http://classicalguitartablature.blogspot.com/
E|------------------------ 3-- 5--|----------------------10----12--|
B| 3---------- 5 6-------- 3-- 3--|----------------------13----10--|
G| 5---------- 7-- 7------ 4-- 3--|---------- 2-------- 012----10--|
D|---- 3------ 7------ 7-- 3------|---- 2---- 0-------- 2----------|
A| 5------------------------------|--------------------------------|
E|-------- 8------ 7------ 5------| 3---- 1---- 1 0--------11------|
http://classicalguitartablature.blogspot.com/
E|--------10-- 8---------- 6-- 5--|--------------------------------|
B|--------10-- 8---------- 8-- 6--|--------------------------------|
G|--------10-- 7---------- 7-- 5--|---- 5------ 5-- 4---- 2-- 2----|
D|----10-------------- 7----------|---------- 4-------- 3-- 1 1----|
A|--------------------------------|--------------------------------|
E|10------ 8------ 7------ 6------| 5------ 4------ 3------ 2-- 2--|
http://classicalguitartablature.blogspot.com/
E|---- 3-- 2-- 3-- 6 8 6----------|-------------------- 5-- 1------|
B|---- 3-- 4-- 4-- 6------10-- 8--| 6------------------ 6-- 1-- 1--|
G|---- 3-- 2-- 2-- 7------ 7------| 5------------------ 7-- 1-- 1--|
D|-------------------------- 8----|---- 7------ 7-------------- 3--|
A|---------------- 8------ 7------| 5---------------------- 4------|
E| 3------ 2----------------------|-------- 8------ 7--------------|
http://classicalguitartablature.blogspot.com/
E|------------------------ 3---- 5|------------ 5------------------|
B|---- 6---------- 6------ 5---- 3|------------ 3------------------|
G| 3-- 6---------- 5------ 3---- 3|------------ 3------ 3------ 4--|
D| 3-- 5------ 5------ 4------ 5--|---- 3------ 2---- 3-------- 3--|
A| 3------------------------------|-------------- 5------ 4--------|
E|-------- 6------ 5------ 3---- 1|------ 0------------------------|
http://classicalguitartablature.blogspot.com/
E|------------------------ 3---- 5|------------ 5------------------|
B|---- 6---------- 6------ 5---- 3|------------ 3------------------|
G| 3-- 6---------- 5------ 3---- 3|------------ 3------ 3------ 4--|
D| 3-- 5------ 5------ 4------ 5--|---- 3------ 2---- 3-------- 3--|
A| 3------------------------------|-------------- 5------ 4--------|
E|-------- 6------ 5------ 3---- 1|------ 0------------------------|
http://classicalguitartablature.blogspot.com/
E|------------------------ 3------| 5---------- 3------------------|
B|---- 6---------- 6------ 5------| 3---------- 4-------------- 6--|
G| 3-- 6---------- 5------ 3------| 3------ 3-- 6------ 6------ 3--|
D| 3-- 5------ 5------ 4------ 5--|---- 3-- 2-------------- 5-- 3--|
A| 3------------------------------|---------------- 6------ 4------|
E|-------- 6------ 5------ 3------| 1------ 0----------------------|
http://classicalguitartablature.blogspot.com/
E|---------------- 3--------------|--------------------------------|
B|---------------- 5------------ 6|--------------------------------|
G|---- 3---------- 3------ 6---- 4|--------------------------------|
D|-- 3-------- 3------ 5-- 5---- 3|------ 3------------------------|
A| 5------ 3------ 4------ 6------| 5------------------------------|
E|--------------------------------|--------------------------------|
http://classicalguitartablature.blogspot.com/

0 ความคิดเห็น:

แสดงความคิดเห็น