To celebrate the anniversary, I am giving you (finally...) : iPhone LickByNeck !!!!!!

Django (Intermediate)

John Lewis' tune fingerstyle chord melody guitar intermediate arrangement played in the key of Fm.
Django - John Lewis - Intermediate Arrangement played in the key of Fm.
http://classicalguitartablature.blogspot.com/
E|-------- 6-------------- 4------|--------------------------------|
B|-------- 9-------------- 6------|-------- 8-------------- 6------|
G|---- 8-- 6---------- 5-- 5-- 5--|---- 8-- 8---- 8---- 7-- 3------|
D|-- 6-------- 8------ 6---- 6----|---- 6---- 7-------- 6------ 3--|
A| 8------ 7------ 6------ 5------|--------------------------------|
E|--------------------------------| 8------ 7------ 6------ 4------|
http://classicalguitartablature.blogspot.com/
E|--------------------------------|--------------------------------|
B|-------- 4------------ 2--------|------ 1------------------------|
G| 3------ 3---------- 3 0--------|---- 5 3---- 3------ 3-- 3------|
D| 3-- 3------ 2------ 3------ 2--|-- 6------ 5------ 5-------- 2--|
A|------------------------------ 5|------ 4------ 3-------- 1------|
E| 3------ 2------ 1------ 0------|--------------------------------|
http://classicalguitartablature.blogspot.com/
http://classicalguitartablature.blogspot.com/
E|---------------- 4--------------|--------------------------------|
B|---------------- 4------ 8------| 6---------- 5-- 6------ 2------|
G|---- 1------ 1-- 5------ 5------| 3---------- 3-- 6------ 3------|
D|---- 1 0---- 0------ 6-- 6-- 6--|---- 5------ 5-------- 5 3------|
A|---------------- 6------ 5------| 4------ 3----------------------|
E| 1---- 0------------------------|---------------- 6------ 4------|
http://classicalguitartablature.blogspot.com/
E|------ 6---------------- 9------|-------------- 4----------------|
B|------ 7-------------- 8--------| 9---------- 8 6------ 6--------|
G| 3---- 6------------ 6------ 6--| 8---------- 6------ 5 5--------|
D|------ 2---- 8------ 8----------|---- 6------ 8-------------- 6--|
A|-------- 9---- 8-------- 7------| 8---- 7------ 6------ 5--------|
E| 3------------------------------|------------------------------ 8|
http://classicalguitartablature.blogspot.com/
E|------ 8--------------11------ 9|---------- 8-- 9----------------|
B|------ 7--------------13------ 6|----------10--11------11--------|
G|---- 8 8------------ 811------ 6|---------- 8--10------10--------|
D|---- 7------ 7------ 8------13--|---- 6--10----------11------ 9--|
A|---------------------- 0--------|------------------------------ 6|
E|------ 7------ 6-------------- 6|------ 8------ 9------10--------|
http://classicalguitartablature.blogspot.com/
E|------ 6---------------- 9---- 8|------------ 7 8----------------|
B|------ 6----------------11---- 8|------------ 8 9------ 9--------|
G|---- 6 6------------ 8-- 9------|---- 8------ 6 9------11--------|
D|---- 5------ 6------ 8------11--|---------- 8-------- 810----10--|
A|-------- 8------ 9------10------|--------------------------------|
E|--------------------------------| 4---- 6------ 8------10------ 9|
http://classicalguitartablature.blogspot.com/
E|---------------------- 8--------|-------------- 6-------------- 7|
B|-------- 9------------ 9------11|------------10 8------ 8------ 6|
G|---- 8------ 8------ 6-------- 9|---------- 9-------- 6 6--------|
D|---- 8------ 8------ 6----------|---- 8---- 8---------- 8---- 8--|
A|----------------------11------10|------ 9------ 8------ 7------ 5|
E|-------- 8------ 6--------------|--------------------------------|
http://classicalguitartablature.blogspot.com/
E|------------ 6 7----------------|-------------- 8--------15------|
B|-------- 4---- 9------ 8------13|------------12 8--------14------|
G|---- 7-- 4---- 7------ 7------10|----10---- 9-------- 6--12------|
D|------------------ 9---- 6------|--11------11----------------14--|
A|------ 4----------------------10|------ 9------ 8----------------|
E|-------------- 7------ 6-- 4----|------------------------12------|
http://classicalguitartablature.blogspot.com/
E|--------------15--------13------|--------11-------------- 9------|
B|--------------13--------13------|--------11--------------11------|
G|---- 8------ 5--13--13--13--13--|----10-- 9-- 9------ 6------10--|
D|-- 6------ 8------13------12----|-- 8------ 8------ 5------------|
A| 8------ 7----------------------|------------------------11------|
E|----------------11------10------| 9------ 8------ 6--------------|
http://classicalguitartablature.blogspot.com/
E|------ 8-------------- 6--------|-------- 6-------------- 4------|
B|-------- 9------------ 8--------|-------- 9-------------- 6------|
G|---- 9-- 9---------- 6 6---- 6--|---- 8-- 6---------- 5-- 5-- 5--|
D|---- 8------ 8------ 8---- 8----|-- 6-------- 8------ 6---- 6----|
A|10------ 9------ 8---- 7--------| 8------ 7------ 6------ 5------|
E|--------------------------------|--------------------------------|
http://classicalguitartablature.blogspot.com/
E|--------------------------------|--------------------------------|
B|-------- 8-------------- 6------|-------- 4------------ 2--------|
G|---- 8-- 8---- 8---- 7-- 3------| 3------ 3---------- 3 0--------|
D|---- 6---- 7-------- 6------ 3--| 3-- 3------ 2------ 3------ 2--|
A|--------------------------------|------------------------------ 5|
E| 8------ 7------ 6------ 4------| 3------ 2------ 1------ 0------|
http://classicalguitartablature.blogspot.com/
E|--------------------------------|--------------------------------|
B|------ 1------------------------|--------------------------------|
G|---- 5 3---- 3------ 3-- 3------| 3-------------- 3-------- 3----|
D|-- 6------ 5------ 5-------- 2--| 3------------ 2-------- 2------|
A|------ 4------ 3-------- 1------|--------------------------------|
E|------------------------------ 4|-------------- 3-------- 2------|
http://classicalguitartablature.blogspot.com/
E|--------------------------------|--------------------------------|
B|--------------------------------|--------------------------------|
G|---------- 1--------------------|--------------------------------|
D|---------- 0--------------------|--------------------------------|
A|--------------------------------|--------------------------------|
E|-------- 1----------------------|--------------------------------|
http://classicalguitartablature.blogspot.com/

0 ความคิดเห็น:

แสดงความคิดเห็น