To celebrate the anniversary, I am giving you (finally...) : iPhone LickByNeck !!!!!!

Don't Explain (BASIC)

Billie Holiday's tune fingerstyle chord melody guitar BASIC arrangement played in the key of Em.
Don't Explain - BASIC ARRANGEMENT played in the key of Em
http://classicalguitartablature.blogspot.com/
E|10------ 8----------------------| 8------ 7------------ 7--------|
B| 8------ 8----------------------| 6-------------------- 5---- 5--|
G| 8-- 8------ 8------ 7------ 7--| 6-- 6------ 6------ 5------ 5--|
D|-- 7------ 7------ 6------ 6----|-- 5------ 5------ 4------ 4----|
A| 8------------ 7----------------| 6------------ 5----------------|
E|------------------------ 6------|--------------------------------|
http://classicalguitartablature.blogspot.com/
E| 3------------------------------|--------------------------------|
B| 3-------- 3---------- 5--------|------------------------------ 5|
G| 2------ 2---------- 4---- 4-- 3|---- 3---- 3---- 2-- 2---- 2-- 7|
D|---- 2------ 2---- 5-------- 5 2|---- 2---- 2---- 1-- 1---- 1----|
A|---------------- 4--------------|-------- 3-- 3-- 2--------------|
E| 3------------------------------| 2---------------------- 1-- 1 0|
http://classicalguitartablature.blogspot.com/
http://classicalguitartablature.blogspot.com/
E|------------------------ 7------| 2------------------------------|
B|------ 8---------------- 5-- 5--| 5------------------------------|
G|-------- 7------------------ 7--| 2------ 2---------- 2------ 2--|
D|---- 5------ 5------ 5----------|---- 4------ 4---- 4------ 1----|
A|---------------- 5--------------| 3-------------- 2--------------|
E|--------------------------------|------------------------ 1------|
http://classicalguitartablature.blogspot.com/
E|------------------------------ 2|------------------------------10|
B| 5------ 8------------ 7---- 8 2|---------------------- 0------ 8|
G| 7-------------------- 7------ 3|---- 3------ 3------ 2---- 2----|
D|---- 5------ 5------ 5---- 5----|-- 4------ 2------ 1-------- 1--|
A|---------------- 5------------ 4|-------- 3------ 2--------------|
E| 0------------------------------|--------------------------------|
http://classicalguitartablature.blogspot.com/
E|------ 8------------------------| 8------ 7------------ 7--------|
B|-------- 8----------------------| 6-------------------- 5---- 5--|
G| 8-- 8------ 8------ 7------ 7--| 6-- 6------ 6------ 5------ 5--|
D|-- 7------ 7------ 6------ 6----|-- 5------ 5------ 4------ 4----|
A| 8------------ 7----------------| 6------------ 5----------------|
E|---------------------- 6--------|--------------------------------|
http://classicalguitartablature.blogspot.com/
E| 2------------------------------|--------------------------------|
B| 3------------------ 0------ 0--|---- 8------ 4---------------- 5|
G| 4---- 4------------ 0------ 2--|---- 5------ 5------ 3------ 2 7|
D|---- 4------ 4---- 2------ 0----|-- 7------ 4------ 2------ 1----|
A|---------------- 3------ 2---- 6|------ 5------ 3------ 2--------|
E| 3------------------------------|------------------------------ 0|
http://classicalguitartablature.blogspot.com/
E|------------------------ 7------| 2------------------------------|
B|------ 8---------------- 5-- 5--| 5------------------------------|
G|-------- 7------------------ 7--| 2------ 2---------- 2------ 2--|
D|---- 5------ 5------ 5----------|---- 4------ 4---- 4------ 1----|
A|---------------- 5--------------| 3-------------- 2--------------|
E|--------------------------------|------------------------ 1------|
http://classicalguitartablature.blogspot.com/
E|------------------------------ 2|------------------------------10|
B| 5------ 8------------ 7---- 8 2|---------------------- 0------ 8|
G| 7-------------------- 7------ 3|---- 3------ 3------ 2---- 2----|
D|---- 5------ 5------ 5---- 5----|-- 4------ 2------ 1-------- 1--|
A|---------------- 5------------ 4|-------- 3------ 2--------------|
E| 0------------------------------|--------------------------------|
http://classicalguitartablature.blogspot.com/
E|------ 8------------------------| 8------ 7------------ 7--------|
B|-------- 8----------------------| 6-------------------- 5---- 5--|
G| 8-- 8------ 8------ 7------ 7--| 6-- 6------ 6------ 5------ 5--|
D|-- 7------ 7------ 6------ 6----|-- 5------ 5------ 4------ 4----|
A| 8------------ 7----------------| 6------------ 5----------------|
E|---------------------- 6--------|--------------------------------|
http://classicalguitartablature.blogspot.com/
E| 3------------------------------|------------------------------ 7|
B| 3-------- 3---------- 5--------|------------------------------ 8|
G| 2------ 2---------- 4---- 4-- 3|---- 3---- 3---- 2-- 2---- 2-- 7|
D|---- 2------ 2---- 5-------- 5 2|---- 2---- 2---- 1-- 1---- 1----|
A|---------------- 4--------------|-------- 3-- 3-- 2--------------|
E| 3------------------------------| 2---------------------- 1-- 1--|
http://classicalguitartablature.blogspot.com/
E|---- 7--10-- 7-- 8-- 8-------- 5|---- 5-- 8-- 5------------------|
B|---- 8-- 8-- 8-- 5-- 5------ 5 5|---- 5-- 5-- 5--12--------------|
G|---------------- 5-------- 5-- 5|----------------11--11------10--|
D|-- 9------ 9---------- 5--------|-- 5------ 5------12------ 9----|
A|---------------- 0------------ 5|----------------10--------------|
E| 0------------------------------|------------------------ 9------|
http://classicalguitartablature.blogspot.com/
E|-------- 7----------------------|------------------------------ 7|
B| 8-- 8-- 8-- 8--10--10-------- 7|---- 8--10--10--10-- 8-- 7---- 8|
G| 9-- 9------ 9-- 9-- 9------ 9 9|---- 9-- 9-- 9-- 8-- 8-- 8-- 8 7|
D|-- 9------ 9----10--------10----|-- 8------ 8------ 7------ 7----|
A|---------------- 9------ 9------|--------------------------------|
E| 8---------------------------- 8|---------------- 7--------------|
http://classicalguitartablature.blogspot.com/
E|---- 7--10-- 7-- 8-- 8-------- 5|---- 5-- 8-- 5------------------|
B|---- 8-- 8-- 8-- 5-- 5------ 5 5|---- 5-- 5-- 5--12--------------|
G|---------------- 5-------- 5-- 5|----------------11--11------10--|
D|-- 9------ 9------------ 5------|-- 5------ 5------12------ 9----|
A|---------------- 0------------ 5|----------------10--------------|
E| 0------------------------------|------------------------ 9------|
http://classicalguitartablature.blogspot.com/
E|-------- 7----------------------|-------------- 2----------------|
B| 8-- 8-- 8-- 8--10--10-------- 7|---- 8--10-- 8 4----------------|
G| 9-- 9------ 9-- 9-- 9------ 9--| 9-- 9-- 9-- 9------ 2------ 2--|
D|-- 9------ 9----10--------10----|-- 8------ 8------ 4------ 1----|
A|---------------- 9------ 9------|---------------- 2--------------|
E| 8------------------------------| 8---------------------- 1------|
http://classicalguitartablature.blogspot.com/
E|------------------------ 7------| 2------------------------------|
B| 5------ 8-------------- 5-- 5--| 5------------------------------|
G| 7------ 7------------------ 7--| 2------ 2---------- 2------ 2--|
D|---- 5------ 5------ 5----------|---- 4------ 4---- 4------ 1----|
A|---------------- 5--------------| 3-------------- 2--------------|
E| 0------------------------------|------------------------ 1------|
http://classicalguitartablature.blogspot.com/
E|------------------------------ 2|------------------------------10|
B| 5------ 8------------ 7---- 8 2|---------------------- 0------ 8|
G| 7-------------------- 7------ 3|---- 3------ 3------ 2---- 2----|
D|---- 5------ 5------ 5---- 5----|-- 4------ 2------ 1-------- 1--|
A|---------------- 5------------ 4|-------- 3------ 2--------------|
E| 0------------------------------|--------------------------------|
http://classicalguitartablature.blogspot.com/
E|------ 8------------------------| 8------ 7------------ 7--------|
B|-------- 8----------------------| 6-------------------- 5---- 5--|
G| 8-- 8------ 8------ 7------ 7--| 6-- 6------ 6------ 5------ 5--|
D|-- 7------ 7------ 6------ 6----|-- 5------ 5------ 4------ 4----|
A| 8------------ 7----------------| 6------------ 5----------------|
E|---------------------- 6--------|--------------------------------|
http://classicalguitartablature.blogspot.com/
E| 3------------------------------|--------------------------------|
B| 3-------- 3---------- 5--------|--------------------------------|
G| 2------ 2---------- 4---- 4-- 3|---- 3---- 3---- 2-- 2---- 2----|
D|---- 2------ 2---- 5-------- 5 2|---- 2---- 2---- 1-- 1---- 1----|
A|---------------- 4--------------|-------- 3-- 3-- 2--------------|
E| 3------------------------------| 2---------------------- 1-- 1--|
http://classicalguitartablature.blogspot.com/
E|--------------------------------|--------------------------------|
B|-- 2----------------------------|--------------------------------|
G| 0------------------------------|--------------------------------|
D| 2------------------------------|--------------------------------|
A|--------------------------------|--------------------------------|
E| 0------------------------------|--------------------------------|
http://classicalguitartablature.blogspot.com/

0 ความคิดเห็น:

แสดงความคิดเห็น