To celebrate the anniversary, I am giving you (finally...) : iPhone LickByNeck !!!!!!

Don't Explain (Intermediate)

Billie Holiday's tune fingerstyle chord melody guitar intermediate arrangement played in the key of Em.
Don't Explain - INTERMEDIATE ARRANGEMENTplayed in the key of Em
http://classicalguitartablature.blogspot.com/
E|10---- 8------------------------| 8------ 7------------ 7------ 3|
B| 8------10----------------------| 6------ 8-- 8-------- 5---- 5 3|
G|---- 8-- 8-- 8------ 8------ 7--| 6-- 6---- 6-------- 2------ 5 2|
D|-- 7------10------10------ 6----|-- 5-------------- 1------ 4----|
A| 0------10------ 8---- 7--------| 6------ 7----------------------|
E|--------------------------------|---------------- 2------ 4------|
http://classicalguitartablature.blogspot.com/
E|--------------------------------|--------------------------------|
B|-------------- 8------ 7--------|--------------------------------|
G|---- 2------ 2------ 6------ 4--|---- 5------ 5------ 5------ 8--|
D|-- 2------ 2------ 9------ 7----|-- 7------ 4------ 8------ 7----|
A|-------------- 7-------- 5---- 6|-------- 5------ 7------ 8------|
E| 3------ 2----------------------|--------------------------------|
http://classicalguitartablature.blogspot.com/
http://classicalguitartablature.blogspot.com/
E| 0-------------------- 7--------|--------------------------------|
B| 0------ 8------------ 5---- 5 5|--------------------------------|
G|-------- 5-- 5------ 7 4--------|---- 2------ 2------ 2------ 2--|
D|---- 0---- 7------ 5------ 5----|-- 4------ 4------ 4------ 4----|
A|-------- 6---- 5------ 4------ 3|-------- 2------ 0--------------|
E| 0------------------------------|---------------------- 4--------|
http://classicalguitartablature.blogspot.com/
E|------ 3------------------------| 2----------------------------10|
B| 5---- 4---------------- 7-- 8--| 2---------------------------- 8|
G|---- 4------ 2------ 7-- 7------| 3-- 3------ 3------ 2------ 0--|
D|-- 2------ 4------ 5------ 5----|-- 4------ 2------ 1------ 2----|
A|------------------------ 5------| 4------ 3------ 2------ 1---- 0|
E| 3------ 2------ 0--------------|--------------------------------|
http://classicalguitartablature.blogspot.com/
E|------ 8------------------------| 8------ 7------------ 7--------|
B|------10------------------------| 6------ 8-- 8-------- 5---- 5--|
G|---- 8 8---- 8------ 8------ 7--| 6-- 6---- 6-------- 2------ 5--|
D|-- 7------10------10------ 6----|-- 5-------------- 1------ 4----|
A|------10------ 8------ 7--------| 6------ 7----------------------|
E|--------------------------------|---------------- 2------ 4------|
http://classicalguitartablature.blogspot.com/
E| 2------------------------------|--------------------------------|
B| 3------------ 8------ 7--------|--------------------------------|
G| 2-- 2------ 2------ 6------ 4--|---- 5------ 5------ 5------ 8--|
D|-- 2------ 2------ 9------ 7----|-- 7------ 4------ 8------ 7----|
A|-------------- 7-------- 5---- 6|-------- 5------ 7------ 8------|
E| 3------ 2----------------------|--------------------------------|
http://classicalguitartablature.blogspot.com/
E| 0-------------------- 7--------|--------------------------------|
B| 0------ 8------------ 5---- 5 5|--------------------------------|
G|-------- 5-- 5------ 7 4--------|---- 2------ 2------ 2------ 2--|
D|---- 0---- 7------ 5------ 5----|-- 4------ 4------ 4------ 4----|
A|-------- 6---- 5------ 4------ 3|-------- 2------ 0--------------|
E| 0------------------------------|---------------------- 4--------|
http://classicalguitartablature.blogspot.com/
E|------ 3------------------------| 2----------------------------10|
B| 5---- 4---------------- 7-- 8--| 2---------------------------- 8|
G|---- 4------ 2------ 7-- 7------| 3-- 3------ 3------ 2------ 0--|
D|-- 2------ 4------ 5------ 5----|-- 4------ 2------ 1------ 2----|
A|------------------------ 5------| 4------ 3------ 2------ 1---- 0|
E| 3------ 2------ 0--------------|--------------------------------|
http://classicalguitartablature.blogspot.com/
E|------ 8------------------------| 8------ 7------------ 7------ 3|
B|------10------------------------| 6------ 8-- 8-------- 5---- 5 3|
G|---- 8 8---- 8------ 8------ 7--| 6-- 6---- 6-------- 2------ 5 2|
D|-- 7------10------10------ 6----|-- 5-------------- 1------ 4----|
A|------10------ 8------ 7--------| 6------ 7----------------------|
E|--------------------------------|---------------- 2------ 4------|
http://classicalguitartablature.blogspot.com/
E|--------------------------------|------------------------------ 7|
B|--------------------------------|------------------------------ 5|
G|---- 2------ 2------ 6------ 4--| 4-- 4------ 3 2---- 2------ 2 4|
D|-- 2------ 2------ 8------ 4----| 5-- 5---- 2---- 1-- 1---- 1----|
A|------------------------ 5------| 4------ 3---- 2------ 0--------|
E| 3------ 2------ 0--------------|------------------------------ 3|
http://classicalguitartablature.blogspot.com/
E|---- 710---- 7 8---- 8-------- 5|---- 5 8------ 7-------------- 3|
B|---- 5-- 7-- 7-- 5-- 6-------- 5|---- 510----10 5-------------- 5|
G|-- 4---- 8------ 5-- 6------ 6 5|------ 8---- 8 7---- 7------ 7--|
D|---------- 7-------------- 6----|-- 5------10------ 5------ 5----|
A|-------- 9------ 7---- 6------ 5|--------------------------------|
E|--------------------------------|------ 8-------- 7------ 5------|
http://classicalguitartablature.blogspot.com/
E|---- 3 7-------- 5-- 5----------|-------- 5-- 5-- 5-- 3 2------ 7|
B|---- 5 8---- 8-- 7-- 7-------- 7|---- 8-- 3-- 3 7------ 3------ 8|
G| 5---- 7-------- 5-- 5------ 5 5|-------- 3------ 4---- 2---- 2 7|
D|-- 5------ 9-------------- 7----|-- 5------ 3------ 4------ 1----|
A|------ 8-------- 7---- 6------ 7|-------- 5------ 6--------------|
E| 3------------------------------|------------------------ 1------|
http://classicalguitartablature.blogspot.com/
E|---- 7--10-- 7-- 8-- 8----------| 5-- 5 8---- 5------------------|
B|---- 8-- 8-- 8--10-- 9-------- 7|---- 7 4------12-------------- 8|
G|---------- 9---- 9-- 7------ 7--| 5------ 5----11----11------11 5|
D|-- 9--------------10------ 9----|-- 7------ 4------12------12----|
A|--------------------------------|----------------10------ 9---- 7|
E| 0------10------ 8------ 7------| 5------ 4----------------------|
http://classicalguitartablature.blogspot.com/
E|------ 7------ 5---- 5----------|------ 5------ 2----------------|
B|---- 8 8---- 8 5---- 4-------- 7|---- 8 8---- 8 5------ 4--------|
G|-------- 7---- 5---- 2------ 2 6|------ 5------ 4---- 4------ 2--|
D|-- 9------ 5------ 4------ 4----|-- 5------ 7------ 2---- 4 4----|
A|-------- 5------ 3------ 2------|--------------------------------|
E|------------------------------ 6|-------- 5------ 3------ 2------|
http://classicalguitartablature.blogspot.com/
E| 0-------------------- 7--------|--------------------------------|
B| 0------ 8------------ 5---- 5 5|--------------------------------|
G|-------- 5-- 5------ 7 4--------|---- 2------ 2------ 2------ 2--|
D|---- 0---- 7------ 5------ 5----|-- 4------ 4------ 4------ 4----|
A|-------- 6---- 5------ 4------ 3|-------- 2------ 0--------------|
E| 0------------------------------|---------------------- 4--------|
http://classicalguitartablature.blogspot.com/
E|------ 3------------------------| 2----------------------------10|
B| 5---- 4---------------- 7-- 8--| 2---------------------------- 8|
G|---- 4------ 2------ 7-- 7------| 3-- 3------ 3------ 2------ 0--|
D|-- 2------ 4------ 5------ 5----|-- 4------ 2------ 1------ 2----|
A|------------------------ 5------| 4------ 3------ 2------ 1---- 0|
E| 3------ 2------ 0--------------|--------------------------------|
http://classicalguitartablature.blogspot.com/
E|------ 8------------------------| 8------ 7------------ 7------ 3|
B|------10------------------------| 6------ 8-- 8-------- 5---- 5 3|
G|---- 8 8---- 8------ 8------ 7--| 6-- 6---- 6-------- 2------ 5 2|
D|-- 7------10------10------ 6----|-- 5-------------- 1------ 4----|
A|------10------ 8------ 7--------| 6------ 7----------------------|
E|--------------------------------|---------------- 2------ 4------|
http://classicalguitartablature.blogspot.com/
E|--------------------------------|--------------------------------|
B|-------------- 8------ 7--------|--------------------------------|
G|---- 2------ 2------ 6------ 4--|---- 5------ 5------ 5------ 8--|
D|-- 2------ 2------ 9------ 7----|-- 7------ 4------ 8------ 7----|
A|-------------- 7-------- 5---- 6|-------- 5------ 7------ 8------|
E| 3------ 2----------------------|------------------------------ 0|
http://classicalguitartablature.blogspot.com/
E|--------------------------------|--------------------------------|
B| 2------------------------------|--------------------------------|
G| 0------------------------------|--------------------------------|
D| 2------------------------------|--------------------------------|
A|--------------------------------|--------------------------------|
E|--------------------------------|--------------------------------|
http://classicalguitartablature.blogspot.com/

0 ความคิดเห็น:

แสดงความคิดเห็น