To celebrate the anniversary, I am giving you (finally...) : iPhone LickByNeck !!!!!!

Just In Time (BASIC)

Dean Martin's tune fingerstyle chord melody guitar BASIC arrangement played in the key of Bb.
Just In Time-Dean Martin-BASIC ARRANGEMENT played in the key of Bb
http://classicalguitartablature.blogspot.com/
E| 8------------ 8------10---- 8--|-------------- 8-------------- 6|
B| 8----12------ 8--------------11|------------11-------------- 8 6|
G| 9-------- 9------------------ 8|------ 8-------------- 8--------|
D|---- 8------ 8------ 8---- 8----|---- 8-------- 8---- 8-------- 5|
A|--------------------------------|-------------- 8----------------|
E| 8------------ 8-------------- 8|------------------------------ 6|
http://classicalguitartablature.blogspot.com/
E|--------------------------------|------------------------------ 1|
B|------------ 6-------------- 4--|------------ 4-------------- 2--|
G|------ 5---------------- 4------|------ 3-------------- 2--------|
D|---- 5-------------- 3----------|---- 2-------------- 1----------|
A|--------------------------------|--------------------------------|
E|-------------- 3----------------| 2-------------- 1--------------|
http://classicalguitartablature.blogspot.com/
http://classicalguitartablature.blogspot.com/
E|--------------------------------|--------------------------------|
B| 3---- 2---- 3------------------|------ 2------ 3------ 2------ 3|
G| 2------ 2-- 2-------- 2--------|------ 2------ 2------ 2--------|
D|---- 3-------------- 3------ 3--|---- 3---- 3-------- 3------ 3--|
A| 1---------------------------- 1|--------------------------------|
E|-------------- 1----------------|-------------- 1----------------|
http://classicalguitartablature.blogspot.com/
E|--------------------------------|--------------------------------|
B|------ 2---- 3------------------|------ 2------ 3------ 2------ 3|
G| 0---- 0---- 0-------- 0--------|-------------- 5------ 5------ 4|
D|-- 1---------------- 1------ 1--|---- 4---- 4------ 4------ 4----|
A| 0------------ 0-------------- 5|-------------- 5----------------|
E|--------------------------------|--------------------------------|
http://classicalguitartablature.blogspot.com/
E|--------------------------------|--------------------------------|
B|-------- 2-- 3------------------|------ 2------ 3------ 2------ 3|
G|-------- 4-- 4-------- 4--------|------ 4------ 4-------------- 3|
D|---- 3-------------- 3------ 3--|---- 3------ 3------ 3------ 3--|
A|--------------------------------|------------------------------ 3|
E| 3-------------- 3------------ 3|-------------- 3----------------|
http://classicalguitartablature.blogspot.com/
E|--------------------------------|--------------------------------|
B|--------------------------------|------------------------------ 3|
G|------ 3---------------- 3------|------ 3-------------- 3------ 2|
D|---- 2------ 2------ 2------ 2--|---- 3------ 3------ 2------ 2--|
A|--------------------------------|--------------------------------|
E|---------------- 3------------ 3|-------------- 2----------------|
http://classicalguitartablature.blogspot.com/
E|--------------------------------|--------------------------------|
B|------ 2---- 3------------------|------ 2------ 3------ 2------ 3|
G|------ 2---- 2-------- 2--------|-------------- 2------ 2------ 1|
D|-- 1---------------- 1------ 1--|---- 1-------------- 1------ 1--|
A|--------------------------------|-------------- 2-------------- 1|
E| 1-------------- 1--------------| 1------------------------------|
http://classicalguitartablature.blogspot.com/
E|--------------------------------|---------------------- 1--------|
B|------------ 3-------------- 3--|------ 2------ 3-------------- 8|
G|---------------------- 1--------|-- 1---------- 1------------ 1 7|
D|-- 3---------------- 3-------- 0|---------- 0------ 0------------|
A|--------------------------------|------------------------------ 6|
E|-------------- 1-------------- 0|-------------- 0----------------|
http://classicalguitartablature.blogspot.com/
E|--------------------------------|---------------------- 6------ 8|
B|------ 7---- 8-------- 8--------|------ 7------ 8-------------- 8|
G|------ 7---- 7------------------|------ 7------------ 6---- 6-- 8|
D|-- 8---------------- 8------ 8--|---- 6------------ 5------------|
A|--------------------------------|--------------------------------|
E|-------------- 6----------------| 6------------ 5-------------- 4|
http://classicalguitartablature.blogspot.com/
E|--------------------------------|------------------------------ 6|
B|--------------------------------|------ 4------ 6------ 4------ 3|
G|------ 8---------------- 8------|------ 5------ 5------ 5--------|
D|---- 6------ 6------ 6------ 6--|---- 5------ 5------ 4------ 4--|
A|--------------------------------|-------------- 5----------------|
E|---------------- 4------------ 5|------------------------------ 3|
http://classicalguitartablature.blogspot.com/
E|------ 5---- 6-------- 6--------|------ 5------ 6------ 5------ 6|
B|------ 3---- 3-------- 3------ 4|------ 4------ 4------ 4------ 6|
G|---- 3-------------- 3------ 3--|-- 2------ 2-------- 2------ 2--|
D|--------------------------------|--------------------------------|
A|--------------------------------|--------------------------------|
E|-------------- 3-------------- 2|---------------- 2--------------|
http://classicalguitartablature.blogspot.com/
E|-------- 8---- 8--------10----10|------ 8------ 8----------------|
B|--------------------------------| 8------ 8-- 8 8------11------ 8|
G|---- 7------ 7------ 7------ 7 9|---------------- 9-- 9 9------ 7|
D|--------------------------------|---- 8---------------------- 8--|
A| 8------------ 8----------------|--------------------------------|
E|--------------------------------| 8-------------- 9--------------|
http://classicalguitartablature.blogspot.com/
E|--------------------------------|---------------------- 6--------|
B|------ 7---- 8------------------|------ 7------ 8-------------- 4|
G|------ 7---- 7-------- 7--------|------ 6------ 6-------------- 5|
D|---- 8-------------- 8------ 8--|---- 5------ 5------ 5------ 5--|
A|--------------------------------|--------------------------------|
E| 6------------ 6-------------- 5|-------------- 5-------------- 4|
http://classicalguitartablature.blogspot.com/
E|--------------------------------|--------------------------------|
B|--------------------------------|-------- 3---- 6------ 4------ 3|
G|------ 5-------------- 5------ 4|-------------- 4-------------- 3|
D|---- 4------ 4------ 4------ 4--|---- 3------ 3---- 3-------- 3--|
A|--------------------------------|------------------------------ 3|
E|---------------- 4------------ 3|---------------- 3--------------|
http://classicalguitartablature.blogspot.com/
E|--------------------------------|---------------------- 1--------|
B|------ 2---- 3-------------- 3--|------ 2------ 3-------------- 8|
G|------ 3---- 3-------- 3--------|------ 2------ 2-------------- 7|
D|-- 2---------------- 2----------|---- 1---- 1-------- 1---- 1----|
A|--------------------------------|-------------- 2----------------|
E|---------------- 2------------ 1|------------------------------ 6|
http://classicalguitartablature.blogspot.com/
E|--------------------------------|-------------- 3------ 6------ 8|
B|------ 7---- 8------------------|------ 7------ 3------ 3------ 8|
G|------ 7---- 6-------- 6--------|------ 5------ 4-------------- 9|
D|-- 6---------------- 5------ 5--|---- 4------ 4------ 3------ 3--|
A|--------------------------------|--------------------------------|
E|---------------- 5------------ 4|-------------- 3----------------|
http://classicalguitartablature.blogspot.com/
E|-------------- 8------10--------|---------------- 8------------ 6|
B|------12------ 8------ 8------11|---------------- 7---------- 7 6|
G|------------------------------ 8|------ 8-------- 8---- 8------ 5|
D|-- 8-------- 8------ 8------ 8--|---- 8------ 8------ 7----------|
A|--------------------------------|---------------- 8--------------|
E| 8------------ 8-------------- 8|--------------------------------|
http://classicalguitartablature.blogspot.com/
E|---- 6------ 6 6---- 6------ 6--| 6-- 6------ 6 6------ 6---- 6--|
B|---- 6------ 6 6---- 6------ 6--| 6-- 6------ 6 8------ 9---- 6--|
G|---- 5------ 5 4---- 4------ 4--| 6-- 6------ 6 8------ 8---- 5--|
D|--------------------------------|--------------------------------|
A|--------------------------------|---------------- 8--------------|
E| 6---- 6-------- 3------ 3------| 2------ 2-------------- 7-- 6--|
http://classicalguitartablature.blogspot.com/
E|--------------------------------|--------------------------------|
B|--------------------------------|--------------------------------|
G|--------------------------------|--------------------------------|
D|--------------------------------|--------------------------------|
A|--------------------------------|--------------------------------|
E|--------------------------------|--------------------------------|
http://classicalguitartablature.blogspot.com/

0 ความคิดเห็น:

แสดงความคิดเห็น