To celebrate the anniversary, I am giving you (finally...) : iPhone LickByNeck !!!!!!

Killer Joe (BASIC)

Benny Golson's tune fingerstyle chord melody guitar BASIC arrangement played in the key of C.
Killer Joe - Benny Golson - BASIC ARRANGEMENT played in the key of C
http://classicalguitartablature.blogspot.com/
E|--------------------------------|--------------------------------|
B| 1---------- 1---------------- 1|------------ 1------------------|
G| 3---------- 3---------------- 1|------------ 1------------------|
D| 2---------- 2------------------| 0---------- 0------------------|
A| 3---------- 3------------------| 1---------- 1------------------|
E|--------------------------------|--------------------------------|
http://classicalguitartablature.blogspot.com/
E|--------------------------------|--------------------------------|
B| 1---------- 1---------------- 1|------------ 1------------------|
G| 3---------- 3---------------- 1|------------ 1------------------|
D| 2---------- 2---------------- 0|------------ 0------------------|
A| 3---------- 3------------------| 1---------- 1------------------|
E|--------------------------------|------------------------------ 8|
http://classicalguitartablature.blogspot.com/
http://classicalguitartablature.blogspot.com/
E|--------------------------------|--------------------------------|
B|---------------- 6-- 5------ 8--|--------------------------------|
G|------ 7------ 7---- 7------ 7--|------ 7---------------- 7------|
D|---- 8------ 8-- 8-- 8------ 6--|---- 6------ 6------ 6------ 6--|
A|--------------------------------|--------------------------------|
E|---------------- 8--------------| 6-------------- 6------------ 8|
http://classicalguitartablature.blogspot.com/
E|--------------------------------|--------------------------------|
B|-------------- 5----------------|--------------------------------|
G|---- 7------ 7 7---- 5------ 3--|--------------------------------|
D|---- 8------ 8 8---- 8----------|---- 6------ 5------ 5------ 6--|
A|--------------------------------|--------------------------------|
E|-------------- 8-------------- 6|-------------- 6----------------|
http://classicalguitartablature.blogspot.com/
E|--------------------------------|---------------------------- 3--|
B|---------------- 6-- 5------ 8--|---------------------- 5---- 3--|
G|---- 7------ 7-- 7-- 7------ 7--|------ 7------------ 7------ 3--|
D|---- 8------ 8 8---- 8------ 6--|---- 6---- 6-------- 6----------|
A|--------------------------------|------------------------------ 3|
E| 8-------------- 8--------------| 6------------ 6----------------|
http://classicalguitartablature.blogspot.com/
E|--------------------------------|--------------------------------|
B|------------ 3-------------- 3--|--------------------------------|
G|------ 3-------------- 3--------|------------ 3------------ 3----|
D|---- 3-------------- 3----------|---- 6-------------- 6----------|
A|-------------- 3----------------|--------------------------------|
E|--------------------------------| 6------------ 6-------------- 8|
http://classicalguitartablature.blogspot.com/
E|--------------------------------|--------------------------------|
B|---------------- 6-- 5------ 8--|--------------------------------|
G|------ 7------ 7---- 7------ 7--|------ 7---------------- 7------|
D|---- 8------ 8-- 8-- 8------ 6--|---- 6------ 6------ 6------ 6--|
A|--------------------------------|--------------------------------|
E|---------------- 8--------------| 6-------------- 6------------ 8|
http://classicalguitartablature.blogspot.com/
E|--------------------------------|--------------------------------|
B|-------------- 5----------------|--------------------------------|
G|---- 7------ 7 7---- 5------ 3--|--------------------------------|
D|---- 8------ 8 8---- 8----------|---- 6------ 5------ 5------ 6--|
A|--------------------------------|--------------------------------|
E|-------------- 8-------------- 6|-------------- 6----------------|
http://classicalguitartablature.blogspot.com/
E|--------------------------------|---------------------------- 3--|
B|---------------- 6-- 5------ 8--|---------------------- 5---- 3--|
G|---- 7------ 7-- 7-- 7------ 7--|------ 7------------ 7------ 3--|
D|---- 8------ 8 8---- 8------ 6--|---- 6---- 6-------- 6----------|
A|--------------------------------|------------------------------ 3|
E| 8-------------- 8--------------| 6------------ 6----------------|
http://classicalguitartablature.blogspot.com/
E|--------------------------------|--------------------------------|
B|------------ 3-------------- 3--|--------------------------------|
G|------ 3-------------- 3--------|------------ 3------------ 3----|
D|---- 3-------------- 3----------|---- 6-------------- 6----------|
A|-------------- 3----------------|--------------------------------|
E|--------------------------------| 6------------ 6----------------|
http://classicalguitartablature.blogspot.com/
E|--------------------------------|-------------- 5-------------- 6|
B| 8------------------------------|-------------- 5-------------- 7|
G| 7---- 7---------------- 7------|---- 6-------- 6------ 6------ 6|
D|---- 8------ 8------ 8------ 8--|---- 5---- 5-------- 5------ 5--|
A|--------------------------------|-------------- 6----------------|
E| 0-------------- 6--------------| 5------------------------------|
http://classicalguitartablature.blogspot.com/
E|--------------------------------|---------------- 8--------------|
B|--------------------------------|--------------------------------|
G|------ 6------------ 7------ 6--|-------- 5-------------- 5------|
D|---- 8------ 8------ 6------ 5--|---- 4------ 4------ 4------ 4--|
A| 6------------------------------|--------------------------------|
E|---------------- 6------ 5------| 4-------------- 4--------------|
http://classicalguitartablature.blogspot.com/
E| 9------------------------------|--------------------------------|
B| 8------------------------------|--------------------------------|
G| 9------ 9------------ 9--------|----11------11--------------11--|
D|---- 7------ 7------ 7------ 7--|----10------10------10------10--|
A| 0------------------------------|11------------------------------|
E|---------------- 0--------------|----------------11--------------|
http://classicalguitartablature.blogspot.com/
E|12------------------------------|--------------------------------|
B|------------ 0-------------- 0--|------------11------------------|
G|------ 0-------------- 0--------|----12--------------12----------|
D|---- 0-------------- 0----------|----11--------------11------11--|
A|------------------------------ 0|-------------- 0----------------|
E| 0------------ 0----------------|------------------------------ 8|
http://classicalguitartablature.blogspot.com/
E|--------------------------------|--------------------------------|
B|---------------- 6-- 5------ 8--|--------------------------------|
G|------ 7------ 7---- 7------ 7--|------ 7---------------- 7------|
D|---- 8------ 8-- 8-- 8------ 6--|---- 6------ 6------ 6------ 6--|
A|--------------------------------|--------------------------------|
E|---------------- 8--------------| 6-------------- 6------------ 8|
http://classicalguitartablature.blogspot.com/
E|--------------------------------|--------------------------------|
B|-------------- 5----------------|--------------------------------|
G|---- 7------ 7 7---- 5------ 3--|--------------------------------|
D|---- 8------ 8 8---- 8----------|---- 6------ 5------ 5------ 6--|
A|--------------------------------|--------------------------------|
E|-------------- 8-------------- 6|-------------- 6----------------|
http://classicalguitartablature.blogspot.com/
E|--------------------------------|---------------------------- 3--|
B|---------------- 6-- 5------ 8--|---------------------- 5---- 3--|
G|---- 7------ 7-- 7-- 7------ 7--|------ 7------------ 7------ 3--|
D|---- 8------ 8 8---- 8------ 6--|---- 6---- 6-------- 6----------|
A|--------------------------------|------------------------------ 3|
E| 8-------------- 8--------------| 6------------ 6----------------|
http://classicalguitartablature.blogspot.com/
E|--------------------------------|--------------------------------|
B|------------ 3-------------- 3--|--------------------------------|
G|------ 3-------------- 3--------|------------ 3------------ 3----|
D|---- 3-------------- 3----------|---- 6-------------- 6----------|
A|-------------- 3----------------|--------------------------------|
E|--------------------------------| 6------------ 6----------------|
http://classicalguitartablature.blogspot.com/
E|--------------------------------|--------------------------------|
B| 1---------- 1---------------- 1|------------ 1------------------|
G| 3---------- 3---------------- 1|------------ 1------------------|
D| 2---------- 2---------------- 0|------------ 0------------------|
A| 3---------- 3------------------| 1---------- 1------------------|
E|--------------------------------|--------------------------------|
http://classicalguitartablature.blogspot.com/
E|--------------------------------|--------------------------------|
B| 1---------- 1---------------- 1|------------ 1------------------|
G| 3---------- 3---------------- 1|------------ 1------------------|
D| 2---------- 2---------------- 0|------------ 0------------------|
A| 3---------- 3------------------| 1---------- 1------------------|
E|--------------------------------|--------------------------------|
http://classicalguitartablature.blogspot.com/
E|--------------------------------|--------------------------------|
B| 1---------- 1---------------- 1|------------ 1---------------- 1|
G| 3---------- 3---------------- 1|------------ 1---------------- 3|
D| 2---------- 2---------------- 0|------------ 0---------------- 2|
A| 3---------- 3------------------| 1---------- 1---------------- 3|
E|--------------------------------|--------------------------------|
http://classicalguitartablature.blogspot.com/

0 ความคิดเห็น:

แสดงความคิดเห็น