To celebrate the anniversary, I am giving you (finally...) : iPhone LickByNeck !!!!!!

Killer Joe (Intermediate)

Benny Golson's tune fingerstyle chord melody guitar intermediate arrangement played in the key of C.
Killer Joe - Benny Golson - INTERMEDIATE ARRANGEMENT played in the key of C
http://classicalguitartablature.blogspot.com/
E|--------------------------------|--------------------------------|
B| 1---------- 1------------------| 1---------- 1------------------|
G| 3---------- 0------ 2------ 2--| 1---------- 1------ 3------ 1--|
D| 2-- 2------ 2------ 1------ 1--|---- 1------ 1------ 2------ 0--|
A| 3------ 1------ 0------ 2------| 1------------------------------|
E|--------------------------------|-------- 4------ 3------ 1------|
http://classicalguitartablature.blogspot.com/
E|--------------------------------|--------------------------------|
B|--------------------------------| 1---------- 1------------------|
G| 5---------- 5------ 3------ 3--| 1---------- 1------ 7------ 7--|
D|---- 8------ 8------ 3------ 2--|---- 1------ 1------ 5------ 5--|
A| 7------ 6---- 5-------- 3------| 1------------------------------|
E|--------------------------------|-------- 4------ 6------ 7------|
http://classicalguitartablature.blogspot.com/
http://classicalguitartablature.blogspot.com/
E|---------------------------- 3--|--------------------------------|
B|---------------- 6------ 5-- 3--|--------------------------------|
G|---- 3---------- 5------ 3-- 3--|-------------------- 0------ 0--|
D|---- 2------ 2------ 4-- 5------|---- 2------ 2------ 0------ 2--|
A| 3------ 1----------------------|--------------------------------|
E|---------------- 5------ 3------| 3------ 2------ 1------ 0------|
http://classicalguitartablature.blogspot.com/
E|--------------------------------|--------------------------------|
B|-------------- 5-------- 1------|--------------------------------|
G|---- 3---------- 5------ 3-- 3--|---------------- 3---------- 4--|
D|---- 2------ 2------ 4-- 2-- 0--|---- 0------ 0------ 6------ 3--|
A| 3------ 1----------------------|---------------- 5------ 4---- 3|
E|---------------- 5------ 3------| 1------ 0----------------------|
http://classicalguitartablature.blogspot.com/
E|---------------------------- 3--|---------------------------- 3--|
B|---------------- 6------ 5-- 1--|------------------------ 5-- 3--|
G|---- 3------ 3-- 5------ 5-- 1--|---- 1------ 3------ 5-- 7-- 3--|
D|---- 2------ 3-- 7-- 7-- 5------|---- 1------ 2------ 3-- 6------|
A|-------- 5------ 6------ 7------|--------------------------------|
E|--------------------------------| 1------ 3------ 4------ 6------|
http://classicalguitartablature.blogspot.com/
E|--------------------------------|--------------------------------|
B|--------------------------------|--------------------------------|
G|---------------------------- 5 1|------------ 3 5---- 5 7---- 7--|
D|---- 3------ 3------ 5------ 5--|---- 1------ 2 3---- 3 5---- 5--|
A| 3------ 5---- 6-------- 7------|--------------------------------|
E|------------------------------ 1|-------- 3------ 4-- 5-- 6-- 7--|
http://classicalguitartablature.blogspot.com/
E|---------------------------- 3--|--------------------------------|
B|---------------- 6------ 5-- 3--|--------------------------------|
G|---- 3---------- 5------ 3-- 3--|-------------------- 0------ 0--|
D|---- 2------ 2------ 4-- 5------|---- 2------ 2------ 0------ 2--|
A| 3------ 1----------------------|--------------------------------|
E|---------------- 5------ 3------| 3------ 2------ 1------ 0------|
http://classicalguitartablature.blogspot.com/
E|--------------------------------|--------------------------------|
B|-------------- 5-------- 1------|--------------------------------|
G|---- 3---------- 5------ 3-- 3--|---------------- 3---------- 4--|
D|---- 2------ 2------ 4-- 2-- 0--|---- 0------ 0------ 6------ 3--|
A| 3------ 1----------------------|---------------- 5------ 4---- 3|
E|---------------- 5------ 3------| 1------ 0----------------------|
http://classicalguitartablature.blogspot.com/
E|---------------------------- 3--|---------------------------- 3--|
B|---------------- 6------ 5-- 1--|------------------------ 5-- 3--|
G|---- 3------ 3-- 5------ 5-- 1--|---- 1------ 3------ 5-- 7-- 3--|
D|---- 2------ 3-- 7-- 7-- 5------|---- 1------ 2------ 3-- 6------|
A|-------- 5------ 6------ 7------|--------------------------------|
E|--------------------------------| 1------ 3------ 4------ 6------|
http://classicalguitartablature.blogspot.com/
E|--------------------------------|--------------------------------|
B|--------------------------------|--------------------------------|
G|---------------------------- 5 1|------------ 1------ 5------ 7--|
D|---- 3------ 3------ 5------ 5--|---- 1------ 0------ 6------ 7--|
A| 3------ 5---- 6-------- 7------|---------------- 6------ 8------|
E|------------------------------ 1|------ 0------------------------|
http://classicalguitartablature.blogspot.com/
E|--------------------------------|-------------- 5----------------|
B| 8------------------------------|---------------- 2--------------|
G| 7------------------ 3------ 2 6|---------------- 2---------- 2--|
D|---- 8------ 8------ 2------ 3--|---- 5------ 5------ 2------ 0--|
A| 7------ 5---- 4-------- 2------|--------------------------------|
E|------------------------------ 6|-------- 5------ 3------ 1------|
http://classicalguitartablature.blogspot.com/
E|--------------------------------|-------------- 8-------------- 9|
B|11------------------------------|-------------- 7-------------- 8|
G| 8----------10------ 6----------|------ 8------------ 8------ 8--|
D|---- 8-- 9-- 9------ 8------ 8--|---- 6------ 6------------------|
A| 9------ 8------ 6--------------|------------------------------ 0|
E|------------------------ 9------| 8------ 7---- 6-------- 4------|
http://classicalguitartablature.blogspot.com/
E|--------------------------------|--------------------------------|
B|--------------------------------|--------------------------------|
G|---- 9------ 9-- 9----------10--|------------ 1-- 3---------- 4--|
D|-------------------- 7------ 9--|---- 4------ 0------ 1 3---- 3--|
A|--------------------------------| 6------------------------------|
E|------ 7-------- 9------10------|-------- 1------ 2------ 4------|
http://classicalguitartablature.blogspot.com/
E|12------------------------------|--------------------------------|
B|10------------------------------|--------------------------------|
G|12------------------ 8-------- 7|------------ 5-- 4---------- 4--|
D|----11------11------ 7------ 7--|---- 5------ 7------ 5------ 3--|
A| 0------10------ 9------ 8------| 7------ 6------ 5------ 4------|
E|--------------------------------|--------------------------------|
http://classicalguitartablature.blogspot.com/
E|---------------------------- 3--|--------------------------------|
B|---------------- 6------ 5-- 3--|--------------------------------|
G|---- 3---------- 5------ 3-- 3--|-------------------- 0------ 0--|
D|---- 2------ 2------ 4-- 5------|---- 2------ 2------ 0------ 2--|
A| 3------ 1----------------------|--------------------------------|
E|---------------- 5------ 3------| 3------ 2------ 1------ 0------|
http://classicalguitartablature.blogspot.com/
E|--------------------------------|--------------------------------|
B|-------------- 5-------- 1------|--------------------------------|
G|---- 3---------- 5------ 3-- 3--|---------------- 3---------- 4--|
D|---- 2------ 2------ 4-- 2-- 0--|---- 0------ 0------ 6------ 3--|
A| 3------ 1----------------------|---------------- 5------ 4---- 3|
E|---------------- 5------ 3------| 1------ 0----------------------|
http://classicalguitartablature.blogspot.com/
E|---------------------------- 3--|---------------------------- 3--|
B|---------------- 6------ 5-- 1--|------------------------ 5-- 3--|
G|---- 3------ 3-- 5------ 5-- 1--|---- 1------ 3------ 5-- 7-- 3--|
D|---- 2------ 3-- 7-- 7-- 5------|---- 1------ 2------ 3-- 6------|
A|-------- 5------ 6------ 7------|--------------------------------|
E|--------------------------------| 1------ 3------ 4------ 6------|
http://classicalguitartablature.blogspot.com/
E|--------------------------------|--------------------------------|
B|--------------------------------|------------------------------ 1|
G|---------------------------- 5 1|------------ 3 5---- 5 7---- 7--|
D|---- 3------ 3------ 5------ 5--|---- 1------ 2 3---- 3 5---- 5--|
A| 3------ 5---- 6-------- 7------|--------------------------------|
E|------------------------------ 1|-------- 3------ 4-- 5-- 6-- 7--|
http://classicalguitartablature.blogspot.com/
E|--------------------------------|--------------------------------|
B|------------ 1------------------| 1---------- 1------------------|
G| 3---------- 0------ 2------ 2--| 1---------- 1------ 3------ 1--|
D|---- 2------ 2------ 1------ 1--|---- 1------ 1------ 2------ 0--|
A| 3------ 1------ 0------ 2------| 1------------------------------|
E|--------------------------------|-------- 4------ 3------ 1------|
http://classicalguitartablature.blogspot.com/
E|--------------------------------|--------------------------------|
B|--------------------------------| 1---------- 1---------------- 1|
G| 5---------- 5------ 3------ 3--| 1---------- 1------ 7------ 7--|
D|---- 8------ 8------ 3------ 2--|---- 1------ 1------ 5------ 5--|
A| 7------ 6---- 5-------- 3------| 1------------------------------|
E|--------------------------------|-------- 4------ 6------ 7------|
http://classicalguitartablature.blogspot.com/
E|--------------------------------|--------------------------------|
B|------------ 1------------------| 1---------- 1------------------|
G| 3---------- 0------ 2------ 2--| 1---------- 1------ 3------ 1--|
D|---- 2------ 2------ 1------ 1--|---- 1------ 1------ 2------ 0--|
A| 3------ 1------ 0------ 2------| 1------------------------------|
E|--------------------------------|-------- 4------ 3------ 1------|
http://classicalguitartablature.blogspot.com/
E|--------------------------------|--------------------------------|
B| 1------------------------------|--------------------------------|
G| 3------------------------------|--------------------------------|
D| 4------------------------------|--------------------------------|
A|--------------------------------|--------------------------------|
E| 0------------------------------|--------------------------------|
http://classicalguitartablature.blogspot.com/

0 ความคิดเห็น:

แสดงความคิดเห็น