To celebrate the anniversary, I am giving you (finally...) : iPhone LickByNeck !!!!!!

Night Rhythms (BASIC)

Lee Ritenour's tune fingerstyle chord melody guitar BASIC arrangement played in the key of Dm.
Night Rhythms-Lee Ritenour-BASIC ARRANGEMENT played in the key of Dm
http://classicalguitartablature.blogspot.com/
E|--------------------------------|--------------------------------|
B|--------------------------------|--------------------------------|
G|--------------------------------|--------------------------------|
D|--10--10----10---- 8------------|----10--10----------------------|
A|---------------- 8---- 6--------|------------ 8-- 8 6 8-- 6------|
E| 8-- 8------------------------ 8|-- 8----------------------------|
http://classicalguitartablature.blogspot.com/
E|--------------------------------|-------------------------- 6----|
B|--------------------------------|------------------ 8------------|
G|--------------------------------|--------------------------------|
D|--10--10----10------ 8----------|----10--10----------------------|
A|-------------- 810------ 6------|------------ 8-- 8-- 6-- 6------|
E| 8-- 8------------------------ 8|-- 8----------------------------|
http://classicalguitartablature.blogspot.com/
http://classicalguitartablature.blogspot.com/
E|10----10--------10--11------ 8--|------------------------------ 6|
B| 8---- 8-------- 8------ 8------|------ 8-- 8------------------ 4|
G| 8---- 8------------------------|---- 8------ 8------------ 8-- 4|
D|--------------------------------|---- 8------ 8----10------------|
A|--------------------------------|--------------------------------|
E| 8---------- 8-- 8--------------| 8---------- 8------------ 8-- 4|
http://classicalguitartablature.blogspot.com/
E|---------- 6 4 6 4--------------|------------------ 3------ 6----|
B|---------- 4------ 7-- 6-- 4----|---------- 4------ 4------ 4----|
G|---------- 4-------------- 1----|---------- 4------ 4------ 4----|
D|-------------------------- 1----|---------- 3--------------------|
A|--------------------------------|--------------------------------|
E|---- 4---- 4-- 4------ 4------ 1|------ 1---- 3---------- 3------|
http://classicalguitartablature.blogspot.com/
E|10----10--------10--11------ 8--|------------------------------ 6|
B| 8---- 8-------- 8------ 8------|------ 8-- 8------------------ 4|
G| 8---- 8------------------------|---- 8------ 8------------ 8-- 4|
D|--------------------------------|---- 8------ 8----10------------|
A|--------------------------------|--------------------------------|
E| 8---------- 8-- 8--------------| 8---------- 8------------ 8-- 4|
http://classicalguitartablature.blogspot.com/
E|---------- 6 4 6 4--------------|--------------------------------|
B|---------- 4------ 7-- 6-- 4----|---------------------------- 4--|
G|---------- 4-------------- 1----|------------ 5------ 5----------|
D|-------------------------- 1----|------------ 3------ 3----------|
A|--------------------------------|--------------------------------|
E|---- 4---- 4-- 4------ 4------ 1|------ 1---- 3-------------- 3--|
http://classicalguitartablature.blogspot.com/
E|--------------------------------|------------------------------ 1|
B| 6------ 6 6-- 6-- 4-- 8-- 6----|------ 6---- 6------------ 5-- 2|
G| 5------------ 5---------- 4----|------ 4---- 4-------- 4------ 3|
D| 5-------- 5-- 5------------ 3--|---- 3------ 3---- 3------------|
A|--------------------------------|--------------------------------|
E| 4---- 4---- 4 4-------------- 3|------------ 3-------------- 3--|
http://classicalguitartablature.blogspot.com/
E|---------- 1-- 1-- 2------------|--------------------------------|
B|---------- 2---------- 2-- 4----|---------- 4-------------- 2-- 4|
G|---------- 3--------------------|---------- 2---------- 2------ 4|
D|--------------------------------|---------- 1------ 1---------- 6|
A|--------------------------------|--------------------------------|
E| 2---- 2---- 2------------------| 1-- 1------ 1-------------- 1--|
http://classicalguitartablature.blogspot.com/
E|--------------------------------|-------------------- 3---- 6----|
B|---------- 4-- 4-- 5------------|-- 4------ 4-------- 4---- 4----|
G|---------------------- 4-- 6----|-- 6------ 4-------- 4---- 4----|
D|---------- 6-------------- 5----|-- 5------ 3--------------------|
A|---------------------------- 6--|---- 4--------------------------|
E| 0---- 0---- 0---------- 0------|------------ 3------ 3----------|
http://classicalguitartablature.blogspot.com/
E|10----10--------10--11------ 8--|------------------------------ 6|
B| 8---- 8-------- 8------ 8------|------ 8-- 8------------------ 4|
G| 8---- 8------------------------|---- 8------ 8------------ 8-- 4|
D|--------------------------------|---- 8------ 8----10------------|
A|--------------------------------|--------------------------------|
E| 8---------- 8-- 8--------------| 8---------- 8------------ 8-- 4|
http://classicalguitartablature.blogspot.com/
E|---------- 6 4 6 4--------------|--------------------------------|
B|---------- 4------ 7-- 6-- 4----|------------ 4------ 4------ 4--|
G|---------- 4-------------- 1----|------------ 4------ 4------ 4--|
D|-------------------------- 1----|------------ 3------ 3------ 3--|
A|--------------------------------|--------------------------------|
E|---- 4---- 4-- 4------ 4------ 1|------ 1---- 3---------- 3------|
http://classicalguitartablature.blogspot.com/
E|--------------------------------|--------------------------------|
B| 6---- 4------ 4---- 3-- 4------| 6------ 4---- 3---------- 4----|
G| 3---- 3------ 3----------------|-------- 3------------ 3 5-- 5--|
D| 5---- 5------ 5------------ 5--|-------- 5----------------------|
A| 3------------------ 3----------| 3-------------------------- 3--|
E|--------------------------------|--------------------------------|
http://classicalguitartablature.blogspot.com/
E|--------------------------------|--------------------------------|
B|--------------------------------|--------------------------------|
G|------------ 5-- 5------------ 5|-------------- 5 5------ 3-- 5--|
D|------------ 5---------------- 5|------------ 5-- 5 5---- 3-- 5--|
A|------------------ 3---- 3---- 3|-------------------- 3---- 1 3--|
E|--------------------------------|--------------------------------|
http://classicalguitartablature.blogspot.com/

0 ความคิดเห็น:

แสดงความคิดเห็น