To celebrate the anniversary, I am giving you (finally...) : iPhone LickByNeck !!!!!!

The End Of A Love Affair (BASIC)

Jazz standard fingerstyle chord melody guitar BASIC arrangement played in the key of G.
The End Of A Love Affair - BASIC ARRANGEMENT played in the key of G
http://classicalguitartablature.blogspot.com/
E|--------------------------------|---------------------------- 5--|
B| 3---- 3-------- 3---------- 3--| 3------------------ 0-- 8------|
G| 3---- 3---- 5-- 5---------- 5--| 4------------------ 0-- 7------|
D|---- 5-------------- 5------ 4--|---- 4------ 4------ 0-- 5------|
A| 6-------------- 5--------------|--------------------------------|
E|------------------------ 4------| 3------ 2---- 0-------- 6------|
http://classicalguitartablature.blogspot.com/
E| 7---------- 7 7---- 5----------| 2------------------------------|
B| 5------ 5-- 5 5---- 5------ 8--| 3---------- 3---------- 5-- 3--|
G| 5------ 5------ 5-- 5-- 5-- 5--| 4---- 4------------ 5-- 5-- 5--|
D|---- 5------------------ 5------|---- 4-------------- 4------ 4--|
A|---------------- 5--------------|-------------- 5----------------|
E| 5------------------------------| 3---------------------------- 4|
http://classicalguitartablature.blogspot.com/
http://classicalguitartablature.blogspot.com/
E| 5------------ 5---- 3-------- 0|--------------------------------|
B| 3---------- 3 3---- 3------ 6--| 1---------------------- 3-- 1--|
G| 3---- 3------ 3---- 3----------| 2---- 2------ 3---- 3-- 3-- 3--|
D|---- 3------------------ 3------|---- 2------ 2------ 2-- 2-- 2--|
A|---------------- 3--------------|---------------- 3--------------|
E| 3------------------------------| 1-------------------------- 2--|
http://classicalguitartablature.blogspot.com/
E|------------------------ 6-- 8--|--------------------------------|
B| 8------ 8-- 8-- 8------ 8-- 8--| 8---- 8---- 8 8------ 6--------|
G| 8------ 8------ 7------ 6-- 6--| 8---- 8------ 7------ 7---- 8--|
D|---- 6-- 6-- 6-- 6-- 6----------| 6-- 6 6---- 6-- 6-- 6----------|
A| 8---------------------- 7------| 8------------------------------|
E|-------- 7------ 6--------------|-------- 7------ 6--------------|
http://classicalguitartablature.blogspot.com/
E|--------------------------------|---------------------------- 5--|
B| 3---- 3-------- 3---------- 3--| 3------------------ 0-- 8------|
G| 3---- 3---- 5-- 5---------- 5--| 4------------------ 0-- 7------|
D|---- 5-------------- 5------ 4--|---- 4------ 4------ 0-- 5------|
A| 6-------------- 5--------------|--------------------------------|
E|------------------------ 4------| 3------ 2---- 0-------- 6------|
http://classicalguitartablature.blogspot.com/
E| 7---------- 7 7---- 5----------| 2------------------------------|
B| 5------ 5-- 5 5---- 5------ 8--| 3---------- 3---------- 5-- 3--|
G| 5------ 5------ 5-- 5-- 5-- 5--| 4---- 4------------ 5-- 5-- 5--|
D|---- 5------------------ 5------|---- 4-------------- 4------ 4--|
A|---------------- 5--------------|-------------- 5----------------|
E| 5------------------------------| 3---------------------------- 4|
http://classicalguitartablature.blogspot.com/
E| 5------------ 5---- 3-------- 0|--------------------------------|
B| 3---------- 3 3---- 3------ 6--| 1---------------------- 3-- 1--|
G| 3---- 3------ 3---- 3----------| 2---- 2------ 3---- 3-- 3-- 3--|
D|---- 3------------------ 3------|---- 2------ 2------ 2-- 2-- 2--|
A|---------------- 3--------------|---------------- 3--------------|
E| 3------------------------------| 1-------------------------- 2--|
http://classicalguitartablature.blogspot.com/
E|------------------------ 6-- 8--|--------------------------------|
B| 8------ 8-- 8-- 8------ 8-- 8--| 8---- 8---- 8 8------ 6--------|
G| 8------ 8------ 7------ 6-- 6--| 8---- 8------ 7------ 7---- 8--|
D|---- 6-- 6-- 6-- 6-- 6----------| 6-- 6 6---- 6-- 6-- 6----------|
A| 8---------------------- 7------| 8------------------------------|
E|-------- 7------ 6--------------|-------- 7------ 6--------------|
http://classicalguitartablature.blogspot.com/
E|--------------------------------|--------------------------------|
B| 3---- 3-------- 3---------- 3--| 3------------------ 0------ 7--|
G| 3---- 3---- 5-- 5---------- 5--| 4------------------ 0 9--------|
D|---- 5-------------- 5------ 4--|---- 4------ 4------ 0-- 7------|
A| 6-------------- 5--------------|--------------------------------|
E|------------------------ 4------| 3------ 2------ 0------ 7------|
http://classicalguitartablature.blogspot.com/
E|-------------- 7----------------|--------------------------------|
B| 8---- 5---- 8 5-------- 8-- 5--| 8------ 8-------------- 5-- 7--|
G| 7---- 7---- 7 6-------- 5-- 5--| 7------ 7------ 6------ 5-- 5--|
D|---- 5 5---- 5------ 5-- 7-- 7--|---- 5-- 6-- 6-- 5-- 5-- 7-- 7--|
A| 7---------------------- 6------| 7---------------------- 6------|
E|------ 6-------- 5--------------|-------- 6------ 5--------------|
http://classicalguitartablature.blogspot.com/
E|-------------- 7----------------|--------------------------------|
B| 8---- 5---- 8 5-------- 8-- 5--| 8---------------------- 7-- 8--|
G| 7---- 7---- 7 6-------- 5-- 5--| 7-- 7------ 7------ 6-- 6------|
D|---- 5 5---- 5------ 5-- 7-- 7--|-- 5------ 6------ 5---- 5------|
A| 7---------------------- 6------| 7---------------------- 6------|
E|------ 6-------- 5--------------|-------- 6------ 5--------------|
http://classicalguitartablature.blogspot.com/
E| 5---------- 5-- 9------ 7------| 7------ 9--10--12----------12--|
B| 7------ 7------ 7----------10--| 7--------------10------ 9------|
G| 6------ 6------ 7-- 7----------| 7-- 7----------11--11--11------|
D|---- 7------------ 7------------|-- 7--------------12----12------|
A| 5-------------- 9--------------|--------------------------------|
E|--------------------------------| 7-------------- 0--------------|
http://classicalguitartablature.blogspot.com/
E|12------------------------------|--------------------------------|
B|12------12----------------------|------------------------ 8--10--|
G|12--12------12--------12--------| 5-- 5---- 6-------- 5-- 7-- 7--|
D|--------------------11------11--| 5-- 5---- 5-------- 4-- 7-- 9--|
A|-------------- 0----------------|-------- 6-- 6-- 5--------------|
E| 0------------------------------| 5---------------------- 8-- 7--|
http://classicalguitartablature.blogspot.com/
E| 7---------- 7 7---- 5----------| 2------------------------------|
B| 5------ 5-- 5 5---- 5------ 8--| 3---------- 3---------- 5-- 3--|
G| 5------ 5------ 5-- 5-- 5-- 5--| 4---- 4------------ 5-- 5-- 5--|
D|---- 5------------------ 5------|---- 4-------------- 4------ 4--|
A|---------------- 5--------------|-------------- 5----------------|
E| 5------------------------------| 3---------------------------- 4|
http://classicalguitartablature.blogspot.com/
E| 5------------ 5---- 3-------- 0|--------------------------------|
B| 3---------- 3 3---- 3------ 6--| 1---------------------- 3-- 1--|
G| 3---- 3------ 3---- 3----------| 2---- 2------ 3---- 3-- 3-- 3--|
D|---- 3------------------ 3------|---- 2------ 2------ 2-- 2-- 2--|
A|---------------- 3--------------|---------------- 3--------------|
E| 3------------------------------| 1-------------------------- 2--|
http://classicalguitartablature.blogspot.com/
E|------------------------ 6-- 8--|--------------------------------|
B| 8------ 8-- 8-- 8------ 8-- 8--| 8---- 8---- 8 8------ 6--------|
G| 8------ 8------ 7------ 6-- 6--| 8---- 8------ 7------ 7---- 8--|
D|---- 6-- 6-- 6-- 6-- 6----------| 6-- 6 6---- 6-- 6-- 6----------|
A| 8---------------------- 7------| 8------------------------------|
E|-------- 7------ 6--------------|-------- 7------ 6--------------|
http://classicalguitartablature.blogspot.com/
E|--------------------------------|10------------------------------|
B| 3---- 3-------- 3---------- 3--|10--------------------13----12 8|
G| 3---- 3---- 5-- 5---------- 5--|10------10----------1010--------|
D|---- 5-------------- 5------ 4--|----10------10------10----------|
A| 6-------------- 5--------------|----------------10--------------|
E|------------------------ 4------|10------------------------------|
http://classicalguitartablature.blogspot.com/
E| 7---- 7---------------------- 8|-------------------- 7----------|
B|------ 8----10--12--12----10-- 8|--------------------10--10-- 8--|
G| 9-- 9 9-------- 9-- 9---- 9-- 8|------ 8------------ 8----------|
D|----------------10--10---- 8----|---- 7------ 7------------------|
A|----------------10-------- 9-- 8|---------------- 9--------------|
E| 8------------------------------|--------------------------------|
http://classicalguitartablature.blogspot.com/
E| 2------ 2-- 0-- 2------ 2-- 0 5|--------------------------------|
B| 3------ 3-- 3-- 3------ 3-- 3 5|---------------------- 8---- 7--|
G| 4------ 4-- 4-- 4-- 4-- 4-- 4 6|-------- 6---- 6------ 7---- 6--|
D|---- 4--------------------------|---- 5------ 5------ 5 5---- 5--|
A|---------------- 5--------------|--------------------------------|
E| 3---------------------------- 6|---------------- 0--------------|
http://classicalguitartablature.blogspot.com/
E|--------------------------------|------------ 812----------------|
B| 5---- 5------ 5------ 5---- 3--| 5---- 8---- 812------------ 7--|
G| 5---- 6---- 7 5------ 4---- 4--| 5---- 6---- 611------------ 5--|
D|---- 5 5------ 5---- 5 3---- 3--|---- 5 6------------10------ 4--|
A|------ 6------ 5----------------|-------- 6----------------------|
E| 5---------------------- 4------| 5------------10------ 4--------|
http://classicalguitartablature.blogspot.com/
E| 3------------------------------|--------------------------------|
B| 3------------------ 3------ 3--| 3------------------------------|
G| 2---------- 2------ 3------ 3--| 2------------------------------|
D|---- 1-------------- 2------ 2--| 2------------------------------|
A|--------------------------------|--------------------------------|
E| 1-------------- 2------------ 3|--------------------------------|
http://classicalguitartablature.blogspot.com/

0 ความคิดเห็น:

แสดงความคิดเห็น