To celebrate the anniversary, I am giving you (finally...) : iPhone LickByNeck !!!!!!

You've Changed (BASIC)

Eva Cassidy's tune fingerstyle chord melody guitar BASIC arrangement played in the key of C.
You've Changed-Eva Cassidy-BASIC ARRANGEMENT played in the key of C
http://classicalguitartablature.blogspot.com/
E|--------------------------------|------------------------ 3------|
B| 5---- 5------ 6---- 6---- 6-- 5|---- 5---- 5-- 5---- 4----------|
G| 4---- 4------ 6---- 6---- 6-- 5|---- 5---- 5-- 4---- 4----------|
D|---- 5-------- 5---- 5------ 5--|---- 3------ 3 3---- 3----------|
A| 3-------------------- 6------ 5|--------------------------------|
E|---------- 3 4 5----------------|------ 5------ 3------ 3------ 8|
http://classicalguitartablature.blogspot.com/
E|---- 7--------------------------|--------------------------------|
B|---- 8---------------------- 812|----11----10-- 8----------10-- 8|
G|---- 9---- 9---------- 9------ 9|---- 9-- 9-- 9 8------ 8--------|
D|------ 9---- 9------ 9----------|----1010------ 7---- 7------ 7--|
A|------------------------------ 9|------------------------------ 7|
E|---------------- 8--------------|-------------- 7----------------|
http://classicalguitartablature.blogspot.com/
http://classicalguitartablature.blogspot.com/
E|--------------------------------|------ 6------------ 5 3--------|
B|---------- 8---------------- 8--|---- 5 5---------- 6 6 6---- 6--|
G|------ 7-------------------- 7--|---- 6------ 6---- 6------ 6----|
D|---- 9-------------- 9---- 6----|-- 5------ 5--------------------|
A|------------ 7------------------|---------------- 6--------------|
E|-------------- 7------ 6--------| 5------------------------------|
http://classicalguitartablature.blogspot.com/
E|------------ 5------------------|--------------------------------|
B| 5------ 5------ 5---- 5--------|---- 4 4-- 4 5-------- 5--------|
G| 5-- 5---------- 5-- 5----------|---- 5 5-- 5-------- 4------ 4--|
D|-- 4------ 4------ 4------ 4----|-- 5-- 5-- 5------ 3------ 3----|
A| 5------------------------------|--------------------------------|
E|---------------- 5---------- 5 4|-------------- 3----------------|
http://classicalguitartablature.blogspot.com/
E|--------------------------------|---------------------------- 3--|
B|-------- 0---------- 6---- 6-- 5|---- 5---- 5---- 5-- 5-- 4------|
G| 2-- 2-------------- 6---- 6-- 5|---- 5---- 5---- 4-- 4-- 4------|
D|-- 2------ 2------ 5-------- 5--|-- 3-------- 3-- 3 3------ 3----|
A| 3---------- 3---------- 6------| 5------------------------------|
E|---------------- 5--------------|-------- 4------ 3------ 3------|
http://classicalguitartablature.blogspot.com/
E|---- 7--------------------------|--------------------------------|
B|---- 8---------------------- 812|----11----10-- 8----------10-- 8|
G|---------- 9-------- 9---- 9-- 9|---- 9-- 9-- 9 8------ 8--------|
D|-------- 9-- 9---- 9-- 9--------|----1010------ 7---- 7------ 7--|
A|------------------------------ 9|------------------------------ 7|
E| 8-------------- 8--------------|-------------- 7----------------|
http://classicalguitartablature.blogspot.com/
E|--------------------------------|------ 6------------ 5 3--------|
B|---------- 8---------------- 8--|---- 5 5---------- 6 6 6---- 6--|
G|------ 7-------------------- 7--|---- 6------ 6---- 6------ 6----|
D|---- 9-------------- 9---- 6----|-- 5------ 5--------------------|
A|------------ 7------------------|---------------- 6--------------|
E|-------------- 7------ 6--------| 5------------------------------|
http://classicalguitartablature.blogspot.com/
E|------------ 5------------------|--------------------------------|
B| 5------ 5------ 5---- 5--------|---- 4 4-- 4 5-------- 5--------|
G| 5-- 5---------- 5-- 5----------|---- 5 5-- 5-------- 4------ 4 2|
D|-- 4------ 4------ 4------ 4----|-- 5-- 5-- 5------ 3------ 3----|
A| 5------------------------------|--------------------------------|
E|---------------- 5---------- 5 4|-------------- 3----------------|
http://classicalguitartablature.blogspot.com/
E|--------------------------------|--------------------------------|
B|-------- 0----------------------|------ 3-------- 3------ 3 1-- 3|
G|---------- 2------------ 2------|---- 3---------- 3-- 3-------- 2|
D|---- 2-------------- 2---- 2----|-- 3-------------- 2------------|
A| 3---------- 3-- 3---------- 3--|---------- 5 4-- 3--------------|
E|--------------------------------| 3---------------------------- 1|
http://classicalguitartablature.blogspot.com/
E|---- 0 3---- 1-- 0--------------|--------------------------------|
B|---- 3 3---- 3-- 3------ 3------|---- 1 3-- 4---------- 4--------|
G|------------ 2------ 2---- 2----|---- 1 1-- 1-------- 1---- 1----|
D|-- 3------ 3------ 3------------|-- 1-------- 1---- 1------------|
A|--------------------------------| 1-------------- 1---------- 1--|
E|---------------- 1---------- 1--|------------------------------ 0|
http://classicalguitartablature.blogspot.com/
E|--------------------------------|---------------------------- 8--|
B|------ 3-- 0 1 3------ 3---- 1--|------ 3------------10------ 9--|
G|---- 0---- 0 0 0---- 0---- 3----|---- 3---- 3-------- 9---- 9----|
D|-- 2-------------- 2------------|-- 3-------------- 8------------|
A|--------------------------------|------------------------ 9------|
E|---------------- 0--------------| 3---------- 3-- 8--------------|
http://classicalguitartablature.blogspot.com/
E|-- 0 1 3-- 0--------------------|--------------------------------|
B|-- 1 1 1-- 1-- 1-- 1 1----------|------ 4---- 3---------- 3------|
G|-- 2 2 2-- 2-- 2-- 2 2---- 2----|---- 5---- 5-------- 5----------|
D|------------ 3---------- 3------|-- 6-------------- 6------ 6----|
A|--------------------------------|--------------------------------|
E| 1------------ 1------------ 1 6|-------------- 6------------ 6 0|
http://classicalguitartablature.blogspot.com/
E|-- 6-------- 6---- 5------------|------ 5--------------------10--|
B|-- 8 8 8-- 8 5---- 5------ 5----|-- 5 8 5-- 5 8-------- 8--------|
G|-- 7 7 7-- 7 6-------- 6--------|-- 5 5 5-- 5--------10----10----|
D|---- 8 8------------ 5----------|-- 7 7---- 7------10------------|
A|------------------------------ 5|--------------10----------------|
E|-------------- 5------------ 5--|--------------------------------|
http://classicalguitartablature.blogspot.com/
E|---- 7--------------------------|--------------------------------|
B|---- 8---------------------- 812|----11----10-- 8----------10-- 8|
G|---------- 9-------- 9---- 9-- 9|---- 9-- 9-- 9 8------ 8--------|
D|-------- 9-- 9---- 9-- 9--------|----1010------ 7---- 7------ 7--|
A|------------------------------ 9|------------------------------ 7|
E| 8-------------- 8--------------|-------------- 7----------------|
http://classicalguitartablature.blogspot.com/
E|--------------------------------|------ 6------------ 5 3--------|
B|---------- 8---------------- 8--|---- 5 5---------- 6 6 6---- 6--|
G|------ 7-------------------- 7--|---- 6------ 6---- 6------ 6----|
D|---- 9-------------- 9---- 6----|-- 5------ 5--------------------|
A|------------ 7------------------|---------------- 6--------------|
E|-------------- 7------ 6--------| 5------------------------------|
http://classicalguitartablature.blogspot.com/
E|------------ 5------------------|--------------------------------|
B| 5------ 5------ 5---- 5--------|---- 4 4-- 4 5-------- 5--------|
G| 5-- 5---------- 5-- 5----------|---- 5 5-- 5-------- 4------ 4--|
D|-- 4------ 4------ 4------ 4----|-- 5-- 5-- 5------ 3------ 3-- 2|
A| 5------------------------------|------------------------------ 3|
E|---------------- 5---------- 5 4|-------------- 3----------------|
http://classicalguitartablature.blogspot.com/
E|---------------- 3------ 5------|--------------------------------|
B|------ 3------------------------|--------------------------------|
G| 2------------------------------|--------------------------------|
D|--------------------------------|--------------------------------|
A|--------------------------------|--------------------------------|
E|--------------------------------|--------------------------------|
http://classicalguitartablature.blogspot.com/

0 ความคิดเห็น:

แสดงความคิดเห็น