To celebrate the anniversary, I am giving you (finally...) : iPhone LickByNeck !!!!!!
0 com

Delores (BASIC)

Wayne Shorter's tune fingerstyle chord melody guitar BASIC arrangement played in the key of C.
Delores - Wayne Shorter - BASIC Arrangement played in the key of C.
http://classicalguitartablature.blogspot.com/
E|--------------------------------|--------------------------------|
B| 6-------------- 6--------------|---------------- 6--------------|
G| 5---------- 5------ 5----------|------------ 5------ 5----------|
D|---- 6---------------------- 6--|---- 6---------------------- 6--|
A| 4------------------------------|--------------------------------|
E|--------------------------------| 4------------------------------|
http://classicalguitartablature.blogspot.com/
E|---------------------------- 5 8|--------------------------------|
B| 6------------------ 6 8-- 6----| 9------------ 8------ 6---- 3--|
G|-------- 5----------------------|-------- 9---- 7------------ 3--|
D|---- 7------ 7------------------|---- 8------------ 6------------|
A| 5------------------------------| 9-------------- 7------------ 6|
E|---------------- 5--------------|--------------------------------|
http://classicalguitartablature.blogspot.com/
http://classicalguitartablature.blogspot.com/
E|--------------------1010--------|10-------------------------- 6--|
B|-------------------- 8 8---- 8--| 8--------------13------12-- 9--|
G|------ 3------------ 7-- 7-- 7 9|------------ 9--11---------- 8--|
D|---- 5------ 5------------------|---- 7--------------10----------|
A|--------------------------------| 0------------------------------|
E|-------------- 6----------------|----------------10--------------|
http://classicalguitartablature.blogspot.com/
E|--------------------------------|--------------------------------|
B|-------------------- 6 5------ 4|-------------- 6------ 5---- 4--|
G|-------- 8---------- 7------ 7--|------ 5------ 5------------ 5--|
D|---- 6------ 6------ 6----------|---- 5------ 5---- 4-------- 3--|
A| 8------------------------------|-------------- 5----------------|
E|---------------- 6------------ 5|--------------------------------|
http://classicalguitartablature.blogspot.com/
E|--------------------------------|--------------------------------|
B|--------------------------------|--------------------------------|
G|-------- 5-------------- 5------|-------- 5-------------- 5------|
D|---- 3------ 3------ 3------ 3--|---- 3------ 3------ 3------ 3--|
A| 4------------------------------| 4------------------------------|
E|---------------- 4--------------|---------------- 4--------------|
http://classicalguitartablature.blogspot.com/
E|--------------------------------|--------------------------------|
B| 6------------------------------|---------------------- 6--------|
G|-------- 5-------------- 5------|------ 3-------------- 7--------|
D|---- 3------ 3------ 3------ 3--|---- 2------ 2------ 6------ 6--|
A| 5------------------------------|--------------------------------|
E|---------------- 5------------ 2|---------------- 0--------------|
http://classicalguitartablature.blogspot.com/
E|--------------------------------|--------------------------------|
B| 3------------------------------|--------------------------------|
G| 3---------- 3------ 3----------|---- 5------ 6------ 5----------|
D|---- 5------ 3------ 3----------|---- 5------ 5------ 4------ 4--|
A| 6------ 5------ 3--------------|-------- 6------ 5--------------|
E|------------------------ 6------| 5---------------------- 5------|
http://classicalguitartablature.blogspot.com/
E|--------------------------------|--------------------------------|
B|--------------------------------| 4-------------- 6-- 6------ 6--|
G|---- 8------ 7------ 7------ 7--| 5-- 5------ 6-- 5-- 5------ 5--|
D|---- 6---- 7-------- 6------ 6--| 5-- 5------ 5-- 4-- 4------ 4--|
A| 8------------------------------|-------- 6------ 5--------------|
E|------ 7------ 6------ 6--------| 5---------------------- 4------|
http://classicalguitartablature.blogspot.com/
E|--------------------------------|---------------------- 6------ 5|
B| 1------------------------------|------------------------ 6---- 3|
G| 1---------- 1------ 1----------|-------- 5----------------------|
D|---- 3------ 1------ 1------ 1--|---- 6------ 6------ 6------ 6--|
A| 4------ 3------ 1------------ 4|------------------------------ 3|
E|------------------------ 4------|---------------- 4--------------|
http://classicalguitartablature.blogspot.com/
E|-------------------- 3 5---- 6 8|------10-------------------- 8--|
B|-------------------- 3----------| 8------------13--------11--11--|
G|-------- 3---------- 3-------- 9|--------------11------------10--|
D|---- 3------ 3------------------|---- 7------ 7------10----------|
A|--------------------------------| 0----------------------------10|
E|---------------- 3--------------|----------------10--------------|
http://classicalguitartablature.blogspot.com/
E|--------------------------------|------13--------10--------------|
B|------------11------ 8--10--1113|----------------11------11--10--|
G|------10------------10--10--10--|12--------------11---------- 7--|
D|---- 8-------------- 8-- 8-- 8--|----10------10------10------ 8--|
A|--------------------------------| 0------------------------------|
E|----------------10--------------|----------------10--------------|
http://classicalguitartablature.blogspot.com/
E|--------------------------------|--------------------------------|
B|--------------------------------|-------------- 9-------- 8-- 7 5|
G|-------- 7------------ 7--------|------ 6------ 9-------------- 3|
D|---- 8------ 8------ 8------ 8--|---- 5------ 5------ 8----------|
A|--------------------------------|--------------------------------|
E| 0-------------- 6------------ 5|-------------- 9----------------|
http://classicalguitartablature.blogspot.com/
E|--------------------------------|--------------------------------|
B|--------------------------------|------------ 3---------------- 3|
G|------ 3-------------- 3--------|------ 2-------------- 1--------|
D|---- 5------ 5------ 5------ 5 3|---- 3-------------- 0------ 0--|
A| 3---------------------------- 2|--------------------------------|
E|---------------- 3--------------|-------------- 0----------------|
http://classicalguitartablature.blogspot.com/
E|--------------------------------|--------------------------------|
B|--------------------------------|--------------------------------|
G| 3---------- 3------ 3------ 3--|---- 5---- 6-- 5---- 5------ 5--|
D|---- 5------ 3------ 3------ 3--|---- 5---- 5-- 4---- 4------ 4--|
A| 6------ 5------ 3--------------|-------- 6------ 5--------------|
E|------------------------ 6------| 5---------------------- 5------|
http://classicalguitartablature.blogspot.com/
E|--------------------------------|--------------------------------|
B|--------------------------------| 4-------------- 6-- 6------ 6--|
G|---- 8------ 7------ 7------ 7--| 5-- 5------ 6-- 5-- 5------ 5--|
D|---- 6---- 7-------- 6------ 6--| 5-- 5------ 5-- 4-- 4------ 4--|
A| 8------------------------------|-------- 6------ 5--------------|
E|------ 7------ 6------ 6--------| 5---------------------- 4------|
http://classicalguitartablature.blogspot.com/
E|--------------------------------|--------------------------------|
B| 1------------------------------| 1------------------------------|
G| 1---------- 1------ 1----------| 1---------- 1------ 1----------|
D|---- 3------ 1------ 1------ 1--|---- 3------ 1------ 1------ 1--|
A| 4------ 3------ 1--------------| 4------ 3------ 1--------------|
E|------------------------ 4------|------------------------ 4------|
http://classicalguitartablature.blogspot.com/
E|-------------------- 5----------|--------------------------10----|
B| 6------------------ 6-- 8-- 610|-------------- 8------ 6--11----|
G|-------- 5---------- 5-- 5-- 5--|-------- 9---- 7----------12----|
D|---- 7------ 7---------- 7-- 7--|---- 8------ 8---- 6------------|
A| 5---------------------------- 9|---------------- 7--------------|
E|---------------- 5--------------|------------------------------11|
http://classicalguitartablature.blogspot.com/
E|--------------------1010--------|10-------------------------- 6--|
B|-------------------- 8 8---- 8--| 8--------------13------12-- 9--|
G|------12------------ 7-- 7-- 7 9|------------ 9--11---------- 8--|
D|----12------12------------------|---- 7--------------10----------|
A|--------------------------------| 0------------------------------|
E|-------------- 6----------------|----------------10--------------|
http://classicalguitartablature.blogspot.com/
E|--------------------------------|--------------------------------|
B|-------------------- 6 5------ 4|-------------- 6------ 5---- 4--|
G|-------- 8---------- 7------ 7--|------ 5------ 5------------ 5--|
D|---- 6------ 6------ 6----------|---- 5------ 5---- 4-------- 3--|
A| 8------------------------------|-------------- 5----------------|
E|---------------- 6------------ 5|--------------------------------|
http://classicalguitartablature.blogspot.com/
E|--------------------------------|--------------------------------|
B|--------------------------------|--------------------------------|
G|-------- 5-------------- 5------|-------- 5-------------- 5------|
D|---- 3------ 3------ 3------ 3--|---- 3------ 3------ 3------ 3--|
A| 4------------------------------| 4---------------------------- 4|
E|---------------- 4--------------|---------------- 4--------------|
http://classicalguitartablature.blogspot.com/
E|--------------------------------|--------------------------------|
B| 1------------------------------|--------------------------------|
G| 1------------------------------|--------------------------------|
D| 3------------------------------|--------------------------------|
A|--------------------------------|--------------------------------|
E|--------------------------------|--------------------------------|
http://classicalguitartablature.blogspot.com/
0 com

Cottontail (Intermediate)

Duke Ellington's tune fingerstyle chord melody guitar intermediate arrangement played in the key of Ab.
Cottontail - INTERMEDIATE ARRANGEMENT played in the key of Ab
http://classicalguitartablature.blogspot.com/
E|----10----------------------13--|11-- 9------ 8-------------- 4--|
B|---- 9----------------------11--| 9-- 9------ 9------11------ 4--|
G| 5--11------11------11------11--|10--10------ 7------10------ 5--|
D| 4----------------------10------|-------------------- 9----------|
A|-------- 9----------------------|---------------- 8------10------|
E| 4--------------12------10------| 9------11----------------------|
http://classicalguitartablature.blogspot.com/
E|-------- 2-- 3------------------|-------- 3-- 4------------------|
B|---- 6-- 4-- 2------ 4-- 5-- 6--|-- 7---- 4-- 4------------------|
G|---- 5-- 2-- 3---------- 6-- 5--|-------- 3-- 3---------- 6------|
D|---- 6------------------ 5-- 6--|-------------------- 3------ 5--|
A|------------------------ 6---- 5|-------- 4------ 3--------------|
E| 4------ 2------ 1--------------|------------------------ 6------|
http://classicalguitartablature.blogspot.com/
http://classicalguitartablature.blogspot.com/
E|---- 6------------------ 8------|--------------------------------|
B|---- 4-------------- 9----------|11----------11------------------|
G| 3--------------10--------------|10---------- 8-- 6--------------|
D| 3---------- 3------------------|---- 8------10------ 5------ 5--|
A|---------------- 8--------------|--------------------------------|
E| 4------ 3--------------11------| 9------ 8------ 6------ 5------|
http://classicalguitartablature.blogspot.com/
E|---- 6---------- 6---------- 8 6|--------------------------------|
B|---- 4---------- 9---------- 8--| 6-- 9-- 6------ 4--------------|
G| 3-- 3---------- 8---------- 6--| 6------ 6------ 3---------- 6--|
D| 1---------- 2------ 6----------|------------ 6------ 2------ 5--|
A|---------------- 8------ 7------| 6------ 8----------------------|
E| 3------ 2----------------------|---------------- 3------ 5------|
http://classicalguitartablature.blogspot.com/
E|----10----------------------13--|11-- 9------ 8-------------- 4--|
B|---- 9----------------------11--| 9-- 9------ 9------11------ 4--|
G| 5--11------11------11------11--|10--10------ 7------10------ 5--|
D| 4----------------------10------|-------------------- 9----------|
A|-------- 9----------------------|---------------- 8------10------|
E| 4--------------12------10------| 9------11----------------------|
http://classicalguitartablature.blogspot.com/
E|-------- 2-- 3------------------|--------------------------------|
B|---- 6-- 4-- 2------ 4-- 5-- 6--|---- 2-- 3-- 4------------------|
G|---- 5-- 2-- 3---------- 6-- 5--|---- 2-- 2-- 6------------------|
D|---- 6------------------ 5-- 6--|---- 2-- 1-- 6------ 6------ 5--|
A|------------------------ 6------| 5-- 4-- 2----------------------|
E| 4------ 2------ 1--------------|---------------- 6------ 5------|
http://classicalguitartablature.blogspot.com/
E|---- 6------------------ 8------|--------------------------------|
B|---- 4-------------- 9----------|11----------11------------------|
G| 3--------------10--------------|10---------- 8-- 6--------------|
D| 3---------- 3------------------|---- 8------10------ 5------ 5--|
A|---------------- 8--------------|--------------------------------|
E| 4------ 3--------------11------| 9------ 8------ 6------ 5------|
http://classicalguitartablature.blogspot.com/
E|---- 6---------- 6---------- 8 6|--------------------------------|
B|---- 4---------- 9---------- 8--| 6-- 9-- 6------ 4--------------|
G| 3-- 3---------- 8---------- 6--| 6------ 6------ 3---------- 6--|
D| 1---------- 2------ 6----------|------------ 6------ 2------ 5--|
A|---------------- 8------ 7------| 6------ 8----------------------|
E| 3------ 2----------------------|---------------- 3------ 5------|
http://classicalguitartablature.blogspot.com/
E|----10----------------------13--|11-- 9------ 8-------------- 4--|
B|---- 9----------------------11--| 9-- 9------ 9------11------ 4--|
G| 5--11------11------11------11--|10--10------ 7------10------ 5--|
D| 4----------------------10------|-------------------- 9----------|
A|-------- 9----------------------|---------------- 8------10------|
E| 4--------------12------10------| 9------11----------------------|
http://classicalguitartablature.blogspot.com/
E|-------- 2-- 3------------------|-------- 3-- 4------------------|
B|---- 6-- 4-- 2------ 4-- 5-- 6--|-- 7---- 4-- 4------------------|
G|---- 5-- 2-- 3---------- 6-- 5--|-------- 3-- 3---------- 6------|
D|---- 6------------------ 5-- 6--|-------------------- 3-- 6------|
A|------------------------ 6---- 5|-------- 4------ 3--------------|
E| 4------ 2------ 1--------------|------------------------ 6---- 4|
http://classicalguitartablature.blogspot.com/
E|--------------------------------|--------------------------------|
B|--------------------------------|--------------------------------|
G| 3---------- 5------ 6------ 4--|---- 3------ 3------ 5------ 5--|
D|------------ 3------ 5------ 3--|---- 2------ 3------ 5------ 5--|
A|------------------------ 4------| 3------ 5------ 6------ 7------|
E| 3------ 4------ 6--------------|--------------------------------|
http://classicalguitartablature.blogspot.com/
E|--------------------------------|--------------------------------|
B|--------------------------------|--------------------------------|
G| 5---------- 4------ 3------ 3--| 5------------------ 3----------|
D|---- 5------ 3------ 5------ 5--|---- 3------ 3------ 1------ 1--|
A| 6------ 5------ 3--------------|--------------------------------|
E|------------------------ 6------| 5------ 4------ 3------ 2------|
http://classicalguitartablature.blogspot.com/
E|--------------------------------|--------------------------------|
B|--------------------------------|---- 3------ 4------ 6------ 6--|
G| 1---------- 3------ 5------ 5--|---- 1------ 1------ 3------ 3--|
D|---- 1------ 2------ 3------ 4--|---- 3------ 1------ 3------ 3--|
A|--------------------------------| 1------ 3---- 4-------- 5------|
E| 1------ 3------ 4------ 5------|--------------------------------|
http://classicalguitartablature.blogspot.com/
E|--------------------------------|--------------------------------|
B| 6---------- 6-------------- 6--|--------------------------------|
G| 6---------- 5------ 5------ 5--| 7---------- 6------ 6------ 3--|
D|---- 6------ 6------ 6-------- 6|---- 6------ 6------ 5------ 2--|
A| 6---- 5-------- 4------ 3------|--------------------------------|
E|--------------------------------| 7------ 6------ 5------ 3------|
http://classicalguitartablature.blogspot.com/
E|---- 6------------------ 8------|--------------------------------|
B|---- 4-------------- 9----------|11----------11------------------|
G| 3--------------10--------------|10---------- 8-- 6--------------|
D| 3---------- 3------------------|---- 8------10------ 5------ 5--|
A|---------------- 8--------------|--------------------------------|
E| 4------ 3--------------11------| 9------ 8------ 6------ 5------|
http://classicalguitartablature.blogspot.com/
E|---- 6---------- 6---------- 8 6|--------------------------------|
B|---- 4---------- 9---------- 8--| 6-- 9-- 6------ 4--------------|
G| 3-- 3---------- 8---------- 6--| 6------ 6------ 3---------- 6--|
D| 1---------- 2------ 6----------|------------ 6------ 2------ 5--|
A|---------------- 8------ 7------| 6------ 8----------------------|
E| 3------ 2----------------------|---------------- 3------ 5------|
http://classicalguitartablature.blogspot.com/
E|----10----------------------13--|11-- 9------ 8-------------- 4--|
B|---- 9----------------------11--| 9-- 9------ 9------11------ 4--|
G| 5--11------11------11------11--|10--10------ 7------10------ 5--|
D| 4----------------------10------|-------------------- 9----------|
A|-------- 9----------------------|---------------- 8------10------|
E| 4--------------12------10------| 9------11----------------------|
http://classicalguitartablature.blogspot.com/
E|-------- 2-- 3------------------|-------- 3-- 4-------------- 4--|
B|---- 6-- 4-- 2------ 4-- 5-- 6--|-- 7---- 4-- 4-------------- 4--|
G|---- 5-- 2-- 3---------- 6-- 5--|-------- 3-- 3---------- 6-- 5--|
D|---- 6------------------ 5-- 6--|-------------------- 3-- 5------|
A|------------------------ 6---- 5|-------- 4------ 3--------------|
E| 4------ 2------ 1--------------|------------------------ 6------|
http://classicalguitartablature.blogspot.com/
E|-------- 2-- 3------------------|-------- 3-- 4-------------- 4--|
B|---- 6-- 4-- 2------ 4-- 5-- 6--|-- 7---- 4-- 4-------------- 4--|
G|---- 5-- 2-- 3---------- 6-- 5--|-------- 3-- 3---------- 6-- 5--|
D|---- 6------------------ 5-- 6--|-------------------- 3-- 5------|
A|------------------------ 6---- 5|-------- 4------ 3--------------|
E| 4------ 2------ 1--------------|------------------------ 6------|
http://classicalguitartablature.blogspot.com/
E|-------- 2-- 3------------------|-------- 3-- 4------------------|
B|---- 6-- 4-- 2------ 4-- 5-- 6--|-- 7---- 4-- 4---------------- 9|
G|---- 5-- 2-- 3---------- 6-- 5--|-------- 3-- 3---------------- 6|
D|---- 6------------------ 5-- 6--|--------------------------------|
A|------------------------ 6---- 5|-------- 4-- 3------------------|
E| 4------ 2------ 1--------------|--------------------------------|
http://classicalguitartablature.blogspot.com/
E|------------------ 4------------|--------------------------------|
B|--------------------------------|--------------------------------|
G|---------------- 3--------------|--------------------------------|
D| 6------------------------------|--------------------------------|
A|--------------------------------|--------------------------------|
E| 6-------------- 4--------------|--------------------------------|
http://classicalguitartablature.blogspot.com/
0 com

Good Bait (Intermediate)

Jazz standards fingerstyle chord melody guitar intermediate arrangement played in the key of C.
Good Bait - INTERMEDIATE ARRANGEMENT played in the key of C
http://classicalguitartablature.blogspot.com/
E|--------------------------------|--------------------------------|
B|------------ 0------------------| 1------ 1-- 0-- 1--------------|
G|------ 2-------------------- 0--| 0------ 0----------------------|
D|---- 3-------------- 3----------|---- 2-------------- 2------ 2--|
A|--------------------------------| 3------ 2------ 0--------------|
E| 3-------------- 3--------------|------------------------ 3------|
http://classicalguitartablature.blogspot.com/
E|---------------------- 4---- 6 3|------ 3---- 2 3----------------|
B|---- 0-- 1-- 3 4---- 6 4------ 3|------ 3------ 1----------------|
G|---- 2-- 0---- 4------ 4------ 2|------ 2------ 0----------------|
D|---- 0-- 2---- 4----------------|---- 2-------------- 2------ 2--|
A|---------------- 6---- 4------ 3|-------- 2---- 0----------------|
E| 1------ 0----------------------|---------------------- 3--------|
http://classicalguitartablature.blogspot.com/
http://classicalguitartablature.blogspot.com/
E|---- 0---------------- 3---- 1--| 0------ 0---------- 5 3--------|
B|---- 3-- 3-- 1------ 3 4--------| 1------ 0-- 3-- 5-- 4-- 3-- 5 1|
G|---- 2-- 0------ 4---- 4--------| 0------ 0------ 6-- 5-- 3-- 3 2|
D|-------- 2------ 3--------------|---- 2---------- 5---------- 2 3|
A|---------------- 5------ 4------| 3------ 2----------------------|
E| 1------ 0----------------------|---------------- 6-- 5-- 3-- 2--|
http://classicalguitartablature.blogspot.com/
E|------------------------ 3-- 1--| 0------------------------------|
B|------ 1---- 0------ 5-- 3------| 0-- 0------ 4-- 3--------------|
G|------ 0------ 5-------- 1------| 0-- 0-- 3------ 2-- 2------ 6--|
D|---- 3---------- 6--------------|---- 0-- 4------ 3-- 3-- 6------|
A|---------------- 5------ 3------| 2------ 4------ 5------ 6------|
E| 1------ 0----------------------|--------------------------------|
http://classicalguitartablature.blogspot.com/
E|--------------------------------|--------------------------------|
B|--------------------------------| 1------ 1-- 0-- 1--------------|
G| 5------------------------------| 0------ 0----------------------|
D|---- 5------ 5------ 3------ 5--|---- 2-------------- 2------ 2--|
A| 7------ 6------ 5------ 4------| 3------ 2------ 0--------------|
E|--------------------------------|------------------------ 3------|
http://classicalguitartablature.blogspot.com/
E|---------------------- 4---- 6 3|------ 3---- 2 3----------------|
B|---- 0-- 1-- 3 4---- 6 4------ 3|------ 3------ 1----------------|
G|---- 2-- 0---- 4------ 4------ 2|------ 2------ 0----------------|
D|---- 0-- 2---- 4----------------|---- 2-------------- 2------ 2--|
A|---------------- 6---- 4------ 3|-------- 2---- 0----------------|
E| 1------ 0----------------------|---------------------- 3--------|
http://classicalguitartablature.blogspot.com/
E|---- 0---------------- 3---- 1--| 0------ 0---------- 5 3--------|
B|---- 3-- 3-- 1------ 3 4--------| 1------ 0-- 3-- 5-- 4-- 3-- 5 1|
G|---- 2-- 0------ 4---- 4--------| 0------ 0------ 6-- 5-- 3-- 3 2|
D|-------- 2------ 3--------------|---- 2---------- 5---------- 2 3|
A|---------------- 5------ 4------| 3------ 2----------------------|
E| 1------ 0----------------------|---------------- 6-- 5-- 3-- 2--|
http://classicalguitartablature.blogspot.com/
E|------------------------ 3-- 1--| 0------------------------------|
B|------ 1---- 0------ 5-- 3------| 0-- 0------ 4-- 3--------------|
G|------ 0------ 5-------- 1------| 0-- 0-- 3------ 2-- 2------ 6--|
D|---- 3---------- 6--------------|---- 0-- 4------ 3-- 3-- 6------|
A|---------------- 5------ 3------| 2------ 4------ 5------ 6------|
E| 1------ 0----------------------|--------------------------------|
http://classicalguitartablature.blogspot.com/
E|------------------------------ 1|-------- 1-- 0------------------|
B|---------------- 1---------- 1--| 1------ 1------ 6--------------|
G| 5-------------- 1---------- 3--| 2-- 2---------- 5--------------|
D|---- 5------ 5------ 0------ 2--|-------------------- 7------ 7--|
A| 7------ 6----------------------|---------------- 5--------------|
E|---------------- 0------ 2------| 1------ 0-------------- 8------|
http://classicalguitartablature.blogspot.com/
E|-------------- 4---- 6-- 9--11--| 8------ 8-- 7-- 8--------------|
B|---- 5 6---- 8 5-------- 9------| 8------ 8------10--------------|
G|---- 7 5------ 6-------- 9------| 7------ 7----------10------10--|
D|---- 5 7------------------------|---- 7--------------------------|
A|------------------------ 9------| 8------ 7----------------------|
E| 6---- 5------ 4----------------|----------------10------ 8------|
http://classicalguitartablature.blogspot.com/
E|---- 5-------------- 3-- 8-- 6--| 5------ 5----------10-- 8------|
B|---- 8 8---- 6 5-------- 9------| 6------ 5-- 8--10-- 9-- 8--10--|
G|---- 7-- 5-- 5 3----------------| 5------ 5------11--10-- 8-- 8--|
D|------ 7------ 5----------------|---- 7 5--------10---------- 7--|
A|------------------------ 9------| 8------ 7----------------------|
E| 6---- 5-------- 3--------------|----------------11--10-- 8-- 7--|
http://classicalguitartablature.blogspot.com/
E|-------------------- 5-- 8-- 6--| 5---------- 4-- 3--------------|
B| 6------ 6-- 5 6-------- 8------| 5-- 5-- 4------ 3-- 3------ 7--|
G| 5------ 5---- 6-------- 6------| 5-- 5-- 4------ 3-- 3-- 6------|
D|---- 5-- 5----------------------|---- 5-- 4-------------- 6------|
A|------------------------ 8------|--------------------------------|
E| 6------ 5---- 3----------------| 0------ 2------ 3------ 4------|
http://classicalguitartablature.blogspot.com/
E|--------------------------------|--------------------------------|
B| 6------------------------------| 1------ 1-- 0-- 1--------------|
G| 5------------------ 7------ 0--| 0------ 0----------------------|
D|---- 5------ 5------ 5------ 3--|---- 2-------------- 2------ 2--|
A|---------------------- 4--------| 3------ 2------ 0--------------|
E| 5------ 6------ 7--------------|------------------------ 3------|
http://classicalguitartablature.blogspot.com/
E|---------------------- 4---- 6 3|------ 3---- 2 3----------------|
B|---- 0-- 1-- 3 4---- 6 4------ 3|------ 3------ 1----------------|
G|---- 2-- 0---- 4------ 4------ 2|------ 2------ 0----------------|
D|---- 0-- 2---- 4----------------|---- 2-------------- 2------ 2--|
A|---------------- 6---- 4------ 3|-------- 2---- 0----------------|
E| 1------ 0----------------------|---------------------- 3--------|
http://classicalguitartablature.blogspot.com/
E|---- 0---------------- 3---- 1--| 0------ 0---------- 5 3--------|
B|---- 3-- 3-- 1------ 3 4--------| 1------ 0-- 3-- 5-- 4-- 3-- 5 1|
G|---- 2-- 0------ 4---- 4--------| 0------ 0------ 6-- 5-- 3-- 3 2|
D|-------- 2------ 3--------------|---- 2---------- 5---------- 2 3|
A|---------------- 5------ 4------| 3------ 2----------------------|
E| 1------ 0----------------------|---------------- 6-- 5-- 3-- 2--|
http://classicalguitartablature.blogspot.com/
E|------------------------ 3-- 1--| 0------------------------------|
B|------ 1---- 0------ 5-- 3------| 0-- 0------ 4-- 3--------------|
G|------ 0------ 5-------- 1------| 0-- 0-- 3------ 2-- 2------ 6--|
D|---- 3---------- 6--------------|---- 0-- 4------ 3-- 3-- 6------|
A|---------------- 5------ 3------| 2------ 4------ 5------ 6------|
E| 1------ 0----------------------|--------------------------------|
http://classicalguitartablature.blogspot.com/
E|--------------------------------| 0------------------------------|
B| 1------------------------------| 0-- 0------ 4-- 3--------------|
G| 0------ 2-- 2------ 5------ 6--| 0-- 0-- 3------ 2-- 2------ 6--|
D|---- 2------ 2------ 3------ 5--|---- 0-- 4------ 3-- 3-- 6------|
A|--------------------------------| 2------ 4------ 5------ 6------|
E| 0------ 2------ 4------ 6------|--------------------------------|
http://classicalguitartablature.blogspot.com/
E|--------------------------------| 0------------------------------|
B| 1------------------------------| 0-- 0------ 4-- 3--------------|
G| 0------ 2-- 2------ 5------ 6--| 0-- 0-- 3------ 2-- 2------ 6--|
D|---- 2------ 2------ 3------ 5--|---- 0-- 4------ 3-- 3-- 6------|
A|--------------------------------| 2------ 4------ 5------ 6------|
E| 0------ 2------ 4------ 6------|--------------------------------|
http://classicalguitartablature.blogspot.com/
E|--------------------------------|--------------------------------|
B|--------------------------------|--------------------------------|
G| 5------------------------------|--------------------------------|
D| 5------------------------------|--------------------------------|
A| 7-------------- 5--------------|--------------------------------|
E|--------------------------------| 8------------------------------|
http://classicalguitartablature.blogspot.com/
0 com

Shiny Stockings (Intermediate)

Ella Fitzgerald's tune fingerstyle chord melody guitar intermediate arrangement played in the key of F.
Shiny Stockings - INTERMEDIATE ARRANGEMENT played in the key of F
http://classicalguitartablature.blogspot.com/
E|13------10----------------------|---------------- 5-- 5------ 1--|
B|11------11------13--11------10 6|---------------- 3-- 3------ 1--|
G|10--10----------10--10----------|-------- 3------ 3---------- 0--|
D|------------12--12--12--12------|---- 3------ 3-------- 3--------|
A|10------------------------------|---------------- 3--------------|
E|----------------10--------------| 3------------------------------|
http://classicalguitartablature.blogspot.com/
E|--------------------------------|-------------------- 4----------|
B|------------ 1-------------- 8--|---- 4-- 6-- 4------ 5----------|
G|-------- 0-------------- 7------|---- 5-- 5-- 5------ 5------ 5--|
D|---- 0-------------- 6----------|---- 5-- 5-- 5-------- 4--------|
A|--------------------------------|--------------------------------|
E| 1-------------- 6--------------| 5-------------- 4--------------|
http://classicalguitartablature.blogspot.com/
http://classicalguitartablature.blogspot.com/
E| 5-------------- 3-- 5------ 8--|---- 5-------- 3-------- 5------|
B| 3---------- 4-- 3-- 3------ 6--|---- 5-------- 3-------- 5------|
G| 3---------- 2-- 3-- 3------ 7--|---- 3------ 3 3-------- 5------|
D|---- 3------ 4------------------|-------------------- 3------ 5--|
A|--------------------------------| 5------ 4---- 3----------------|
E| 3------ 2------ 1------ 0------|------------------------ 6------|
http://classicalguitartablature.blogspot.com/
E|-------- 3------ 5-- 3------ 5--|-------------------- 2----------|
B| 3------ 6------ 3-- 3------ 8--|-------------------- 5-------- 8|
G| 5------ 5------ 3-- 3------ 5--|-------------- 3---- 3------ 3 7|
D|---- 4------ 3------------------|---- 8------ 8 3-------------- 7|
A|------------------------------ 7|------ 6-------- 5------ 4------|
E| 5------ 4------ 3------ 1------|------------------------------ 8|
http://classicalguitartablature.blogspot.com/
E|-------------------- 3------ 8--|--------------------------------|
B|---------------- 6-- 5------ 9--|---- 8-------- 6------ 8--------|
G|---------------- 5-- 3------ 8--|---- 6-------- 5------ 5------ 2|
D|---- 7------ 7-- 5--------------|---- 8------ 8------ 6 6---- 6--|
A|--------------------------------| 8------ 7---- 6-------- 5---- 3|
E|-------- 7------ 5------ 3------|--------------------------------|
http://classicalguitartablature.blogspot.com/
E|------ 1-------------------- 3--|-------------------- 2----------|
B| 1------ 3---- 8---- 6------ 3--|-------------------- 1----------|
G|-------- 2---- 6---- 6------ 4--|---- 4-------- 1---- 1----------|
D|---- 2------ 3 8---- 5----------|-- 3-------- 3 0------------ 0--|
A|-------- 2----------------------|--------------------------------|
E|---------------- 6------ 5---- 4|------ 3------ 1-------- 0------|
http://classicalguitartablature.blogspot.com/
E|------------------------ 5-- 8--|-------------------- 4-------- 4|
B| 6-------------- 3-- 6-- 6-- 5--|---- 5-------------- 3-------- 1|
G| 3-------------- 3------ 7-- 5--|---- 5-------------- 3-------- 2|
D| 3-- 3------ 3-- 3--------------|---- 5------ 5-------------- 3--|
A| 5------ 4------ 3--------------|--------------------------------|
E|------------------------ 7------| 6------ 5------ 4------ 3------|
http://classicalguitartablature.blogspot.com/
E|---------------------- 7----10--|---------------------- 6---- 5--|
B|-------------------- 8-- 8-- 7--|------------------------ 4-- 4--|
G|---------------- 9------ 9-- 7--|-------------------- 5-- 5-- 5--|
D|---- 2------ 2--10--------------|---- 7------ 7------ 4----------|
A|--------------------------------|--------------------------------|
E| 2------ 0------10------ 9------| 8------ 7------ 5------ 4---- 2|
http://classicalguitartablature.blogspot.com/
E|------------------------ 9--12--|-------------------- 9-------- 5|
B|--------------------10-- 9--12--|-------------------- 9-------- 5|
G|---- 2----------11------ 9--12--|----12------12-- 7-- 7-------- 6|
D|---- 0------ 0--12--------------|---------------- 6---------- 6--|
A|--------------------------------|------------------------------ 0|
E|-------- 1------ 0------10------| 9------ 8------ 7------ 6------|
http://classicalguitartablature.blogspot.com/
E|----------------------------11--|----1110------ 8----------------|
B|----------------------------10--|----1013------ 7----------------|
G|-------------- 8-------- 9--11--|----1112------ 8---- 8----------|
D|---- 6------ 6------ 7-- 7------|------------10------10------10--|
A|--------------------------------|-------------- 8-------- 9------|
E|-------- 7------ 8------ 9------|10----11------------------------|
http://classicalguitartablature.blogspot.com/
E| 5-------------- 3-- 5------ 8--|---- 5-------- 3-------- 5------|
B| 3---------- 4-- 3-- 3------ 6--|---- 5-------- 3-------- 5------|
G| 3---------- 2-- 3-- 3------ 7--|---- 3------ 3 3-------- 5------|
D|---- 3------ 4------------------|-------------------- 3------ 5--|
A|--------------------------------| 5------ 4---- 3----------------|
E| 3------ 2------ 1------ 0------|------------------------ 6------|
http://classicalguitartablature.blogspot.com/
E|-------- 3------ 5-- 3------ 5--|-------------------- 2----------|
B| 3------ 6------ 3-- 3------ 8--|-------------------- 5-------- 8|
G| 5------ 5------ 3-- 3------ 5--|-------------- 3---- 3------ 3 7|
D|---- 4------ 3------------------|---- 8------ 8 3-------------- 7|
A|------------------------------ 7|------ 6-------- 5------ 4------|
E| 5------ 4------ 3------ 1------|------------------------------ 8|
http://classicalguitartablature.blogspot.com/
E|-------------------- 3------ 8--|--------------------------------|
B|---------------- 6-- 5------ 9--|---- 8-------- 6------ 8--------|
G|---------------- 5-- 3------ 8--|---- 6-------- 5------ 5------ 2|
D|---- 7------ 7-- 5--------------|---- 8------ 8------ 6 6---- 6--|
A|--------------------------------| 8------ 7---- 6-------- 5---- 3|
E|-------- 7------ 5------ 3------|--------------------------------|
http://classicalguitartablature.blogspot.com/
E|------ 1-------------------- 3--|-------------------- 2----------|
B| 1------ 3---- 8---- 6------ 3--|-------------------- 1----------|
G|-------- 2---- 6---- 6------ 4--|---- 4-------- 1---- 1----------|
D|---- 2------ 3 8---- 5----------|-- 3-------- 3 0------------ 0--|
A|-------- 2----------------------|--------------------------------|
E|---------------- 6------ 5---- 4|------ 3------ 1-------- 0------|
http://classicalguitartablature.blogspot.com/
E|------------------------ 5-- 8--|-------------------- 4-------- 4|
B| 6-------------- 3-- 6-- 6-- 5--|---- 5-------------- 3-------- 1|
G| 3-------------- 3------ 7-- 5--|---- 5-------------- 3-------- 2|
D| 3-- 3------ 3-- 3--------------|---- 5------ 5-------------- 3--|
A| 5------ 4------ 3--------------|--------------------------------|
E|------------------------ 7------| 6------ 5------ 4------ 3------|
http://classicalguitartablature.blogspot.com/
E|---------------------- 7----10--|--------------------12--------13|
B|-------------------- 8-- 8-- 7--|--------------------10--------11|
G|---------------- 9------ 9-- 7--|----------------11------------10|
D|---- 2------ 2--10--------------|---- 7------ 7--10----------10--|
A|--------------------------------|---------------- 0------11------|
E| 2------ 0------10------ 9------| 8------ 7----------------------|
http://classicalguitartablature.blogspot.com/
E|--------10------ 8-- 6----------|-------------------- 5----------|
B|--------13------ 8-- 6------10--|---- 6--------10---- 5------ 6--|
G|--------11--11-- 7-- 7------10--|---- 6-------- 9---- 5------ 5--|
D|----12---------------------- 8--|---- 5------ 5 8------------ 3--|
A|10------ 0-------------------- 6|------ 4------------------------|
E|---------------- 6------ 8--10--|-------------- 8------ 6--------|
http://classicalguitartablature.blogspot.com/
E|--------------------------------|--------------------------------|
B|--------------------------------|--------------------------------|
G|------------ 5-------------- 5--|------------ 3-------------- 3--|
D|---- 3-------------- 4----------|---- 3-------------- 2----------|
A|--------------------------------|--------------------------------|
E| 5-------------- 4------------ 3|---------------- 2--------------|
http://classicalguitartablature.blogspot.com/
E|--------------------------------|--------------------------------|
B|--------------------------------|--------------------------------|
G|-- 2----------------------------|--------------------------------|
D| 0------------------------------|--------------------------------|
A|--------------------------------|--------------------------------|
E| 1------------------------------|--------------------------------|
http://classicalguitartablature.blogspot.com/
0 com

Angel Eyes (Intermediate)

Jazz tune fingerstyle chord melody guitar intermediate arrangement played in the key of Dm.
Angel Eyes - INTERMEDIATE ARRANGEMENT played in the key of Dm.
http://classicalguitartablature.blogspot.com/
E|--------------------------------|--------------------------------|
B|--------------------------------|--------------------------------|
G|-------- 2------------ 3--------|-------- 4-------------- 5------|
D|---- 3------ 3------ 3------ 3--|---- 3------ 3------ 3------ 3--|
A| 5-------------- 5------------ 5|---------------- 5--------------|
E|--------------------------------|--------------------------------|
http://classicalguitartablature.blogspot.com/
E|--------------------------------|--------------------------------|
B|--------------------------------|--------------------------------|
G|-------- 2-------------- 3------|------ 4-------------- 5--------|
D|---- 3------ 3------ 3------ 3--|---- 3------ 3------ 3------ 3--|
A| 5------------ 5----------------| 5-------------- 5--------------|
E|--------------------------------|--------------------------------|
http://classicalguitartablature.blogspot.com/
http://classicalguitartablature.blogspot.com/
E|-------- 5-- 4-------------- 3--| 1------------------------------|
B|---- 3-- 5-- 1-------------- 1--| 3------ 6 3 6------------------|
G|---- 5-- 3 3 1-------------- 1--| 2------ 4 4 5------------------|
D|---- 3-------------- 1----------|---- 3-- 3 3 6------ 6------ 6--|
A| 5------ 4------ 3------ 1------| 2------------------------------|
E|--------------------------------|-------- 5------ 6------ 4---- 5|
http://classicalguitartablature.blogspot.com/
E|------------ 512----12--10------|--------------------------------|
B|---- 3 6------10-------- 9--10--|--------------------------------|
G|---- 5 4------10---------- 710--|----10------10------ 9------ 7--|
D|-- 3------ 3------ 9--------10--|--10------12------ 7------ 9----|
A|-------------- 8-------- 7------|--------------------------------|
E|------ 3------------------------|11------10------ 9---- 7------ 5|
http://classicalguitartablature.blogspot.com/
E|------ 5---- 4------------------|------------ 1------------------|
B|---- 3 5---- 3-------------- 8--| 6-- 6-- 3-- 3-------------- 3--|
G|---- 5 4---- 1-------------- 6--| 4-- 4-- 2-- 1------ 1------ 1--|
D|-- 3---------------- 3------ 5--| 7-- 7-- 2-------- 3------ 3----|
A|--------------------------------| 5------ 3------ 2---- 1--------|
E|------ 3-------- 1------ 0------|--------------------------------|
http://classicalguitartablature.blogspot.com/
E|---------------- 1--------------|--------------------------------|
B| 6-- 3-- 6-- 3-- 3------ 6-- 3--|--------------------------------|
G| 4-- 4-- 4-- 4-- 1-- 1-- 6-- 5--|---- 5------ 5------ 2------ 6--|
D| 3-- 3-- 3-- 3---- 3---- 5-- 3--|-- 3------ 3------ 5------ 5----|
A|--------------------------------| 5------ 3------ 4---- 6--------|
E| 4------ 3------ 1------ 0------|--------------------------------|
http://classicalguitartablature.blogspot.com/
E|-------- 5-- 4-------------- 3--| 1------------------------------|
B|---- 3-- 5-- 1-------------- 1--| 3------ 6 3 6------------------|
G|---- 5-- 3 3 1-------------- 1--| 2------ 4 4 5------------------|
D|---- 3-------------- 1----------|---- 3-- 3 3 6------ 6------ 6--|
A| 5------ 4------ 3------ 1------| 2------------------------------|
E|--------------------------------|-------- 5------ 6------ 4---- 5|
http://classicalguitartablature.blogspot.com/
E|------------ 512----12--10------|--------------------------------|
B|---- 3 6------10-------- 9--10--|--------------------------------|
G|---- 5 4------10---------- 710--|----10------10------ 9------ 7--|
D|-- 3------ 3------ 9--------10--|--10------12------ 7------ 9----|
A|-------------- 8-------- 7------|--------------------------------|
E|------ 3------------------------|11------10------ 9---- 7------ 5|
http://classicalguitartablature.blogspot.com/
E|------ 5---- 4------------------|------------ 1------------------|
B|---- 3 5---- 3-------------- 8--| 6-- 6-- 3-- 3-------------- 3--|
G|---- 5 4---- 1-------------- 6--| 4-- 4-- 2-- 1------ 1------ 1--|
D|-- 3---------------- 3------ 5--| 7-- 7-- 2-------- 3------ 3----|
A|--------------------------------| 5------ 3------ 2---- 1--------|
E|------ 3-------- 1------ 0------|--------------------------------|
http://classicalguitartablature.blogspot.com/
E|---------------- 1--------------|------------------------10----10|
B| 6-- 3-- 6-- 3-- 3------ 6-- 3--|------------------------ 9---- 8|
G| 4-- 4-- 4-- 4-- 1-- 1-- 6-- 5--|---- 5------ 3------ 2-- 7-- 7--|
D| 3-- 3-- 3-- 3---- 3---- 5-- 3--|-- 3------ 5------ 3------ 9----|
A|--------------------------------| 5------ 4---- 3----------------|
E| 4------ 3------ 1------ 0------|------------------------ 7------|
http://classicalguitartablature.blogspot.com/
E|----10--------------10-- 8------|------------------------------10|
B|---- 8--------------13--11-- 6--|---- 6--------------------------|
G| 8-- 8--------------10-- 8-- 7--|---- 5------ 5------ 4------ 4--|
D|------------ 8-------------- 8--|---- 7---- 7------ 3------ 3----|
A|---------------- 0------10------| 8------ 6---- 5-------- 4------|
E| 8------ 6----------------------|--------------------------------|
http://classicalguitartablature.blogspot.com/
E|----10----10--10------ 8---- 1--|------------------------10------|
B| 8--10----1013-- 8-- 8 8---- 3--|------------------------ 7------|
G| 8--10----1010---- 7-- 7---- 3--|---- 3------ 3------ 5-- 7-- 7--|
D|------------10------------------|-- 3------ 3------ 3------ 6----|
A|-------------- 6------ 7--------|--------------------------------|
E| 8------10-------------------- 1|-------- 3------ 4------ 6------|
http://classicalguitartablature.blogspot.com/
E| 9------------------------ 9----|---------------------------- 1--|
B| 7-- 7------ 8-- 7--12------12 5|-------------------- 2------ 3 9|
G| 7-------- 6---- 7-- 9-------- 6|------------ 6------ 2---- 1 1 6|
D|-- 7------------ 7--12----------|---- 6---- 6------ 0------ 3-- 8|
A|----------------------11--------|------------------------------ 6|
E| 7------ 6------ 5------------ 5|------ 4------ 2------ 1--------|
http://classicalguitartablature.blogspot.com/
E|-------- 4-- 4---------- 4------|--------------------------------|
B|---- 9-- 7-- 4------ 4-- 1--10--|---------------------------- 5--|
G|---- 6-- 4-- 3---- 3---- 1-- 7--|---- 7------ 9------ 9------ 6--|
D|---- 8-------------------- 4 9--|-- 9------ 7------ 7------ 5----|
A|-------- 5---- 4-------- 3------|------------------------ 6------|
E|--------------------------------| 7------ 8------ 9--------------|
http://classicalguitartablature.blogspot.com/
E|-------- 5-- 4-------------- 3--| 1------------------------------|
B|---- 3-- 5-- 1-------------- 1--| 3------ 6 3 6------------------|
G|---- 5-- 3 3 1-------------- 1--| 2------ 4 4 5------------------|
D|---- 3-------------- 1----------|---- 3-- 3 3 6------ 6------ 6--|
A| 5------ 4------ 3------ 1------| 2------------------------------|
E|--------------------------------|-------- 5------ 6------ 4---- 5|
http://classicalguitartablature.blogspot.com/
E|------------ 512----12--10------|--------------------------------|
B|---- 3 6------10-------- 9--10--|--------------------------------|
G|---- 5 4------10---------- 710--|----10------10------ 9------ 7--|
D|-- 3------ 3------ 9--------10--|--10------12------ 7------ 9----|
A|-------------- 8-------- 7------|--------------------------------|
E|------ 3------------------------|11------10------ 9---- 7------ 5|
http://classicalguitartablature.blogspot.com/
E|------ 5---- 4------------------|------------ 1------------------|
B|---- 3 5---- 3-------------- 8--| 6-- 6-- 3-- 3-------------- 3--|
G|---- 5 4---- 1-------------- 6--| 4-- 4-- 2-- 1------ 1------ 1--|
D|-- 3---------------- 3------ 5--| 7-- 7-- 2-------- 3------ 3----|
A|--------------------------------| 5------ 3------ 2---- 1--------|
E|------ 3-------- 1------ 0------|--------------------------------|
http://classicalguitartablature.blogspot.com/
E|---------------- 1--------------|--------------------------------|
B| 6-- 3-- 6-- 3-- 3------ 6-- 3--|------------------------------ 6|
G| 4-- 4-- 4-- 4-- 1-- 1-- 6-- 5--|---- 5------ 3------ 2------ 7--|
D| 3-- 3-- 3-- 3---- 3---- 5-- 3--|-- 3------ 5------ 3------ 7----|
A|--------------------------------| 5------ 4---- 3----------------|
E| 4------ 3------ 1------ 0------|---------------------- 7--------|
http://classicalguitartablature.blogspot.com/
E|-------------------- 5-- 1-- 5--|--------------------------------|
B|-------- 6-- 3-- 6-- 6-- 2-- 3--|---- 3------ 3---------------- 6|
G| 5-- 7-- 4-- 4-- 6-- 6-- 2-- 2--|-- 2------ 2-------- 5------ 5 3|
D| 6------ 3-- 3------------------|------------------ 7------ 7-- 5|
A|--------------------------------|---------------- 6---- 5--------|
E| 6------ 4------ 5------ 3---- 1|-------- 0----------------------|
http://classicalguitartablature.blogspot.com/
E|---------------- 8-- 5------ 5--|--------------------------------|
B|---- 3-- 6------ 8-- 8-- 8-- 5--|--------------------------------|
G|---- 3-- 7-- 7-- 7-- 7-- 6-- 4--|--------------------------------|
D|-------- 7-------------- 5------|--------------------------------|
A| 4------------------------------|--------------------------------|
E|-------- 8------ 7-- 6-- 5---- 3|--------------------------------|
http://classicalguitartablature.blogspot.com/
0 com

Luiza (Basic)

A beutiful Antonio Carlos Jobim's tune fingerstyle chord melody guitar basic arrangement played in the key of Eb.
Luiza - BASIC ARRANGEMENT played in the key of Eb.
http://classicalguitartablature.blogspot.com/
E|------------------------|------------------------|
B|---- 8------------------|-- 7------ 6-------- 5--|
G|------------------------|------------------------|
D| 5------------------ 6--|------ 7-------- 8------|
A|------------------------|------------------------|
E|------------------------|------------------------|
http://classicalguitartablature.blogspot.com/
E|------------------------|------------------------|
B|------------------------| 4----------------------|
G|-------------- 4--------| 4----------------------|
D|---------------------- 3|------------------------|
A|------------------------|------------------------|
E|---------------------- 3|------------------------|
http://classicalguitartablature.blogspot.com/
http://classicalguitartablature.blogspot.com/
E|---------------------- 1|-------------- 1---- 3--|
B| 6---------- 4-------- 4|------------ 4 4--------|
G|------ 4-- 3-------- 3 2|------ 2------ 2------ 1|
D|---- 5---------- 5------|---- 1------------------|
A| 3-------------- 3------|------------------------|
E|---------------------- 1|-------------- 1------ 1|
http://classicalguitartablature.blogspot.com/
E| 3-- 1-------- 1---- 0--|------------------------|
B| 1----------------------| 4-- 3-- 2-- 3-- 4-- 3--|
G|------------ 1----------| 4-------- 4---- 4------|
D|------ 3-------------- 3|---------------- 3------|
A|------------------------|------------------------|
E|---------------------- 3|---------------- 3------|
http://classicalguitartablature.blogspot.com/
E|---------------------- 1|-------------- 1---- 3--|
B| 6---------- 4-------- 4|------------ 4 4------ 1|
G|------ 4-- 3-------- 3 2|------ 2------ 2------ 1|
D|---- 5---------- 5------|---- 1------------------|
A| 3-------------- 3------|------------------------|
E|---------------------- 1|-------------- 1------ 1|
http://classicalguitartablature.blogspot.com/
E| 3-- 1 0---- 1 3---- 4--|------------------------|
B|-------------- 6--------| 9-- 8-- 7-- 8-- 9-- 811|
G|-------------- 5--------| 9-------------------- 8|
D|---------------------- 8|-------------- 8--------|
A|------------------------|------------------------|
E|-------------- 4------ 8|------------------------|
http://classicalguitartablature.blogspot.com/
E|---------------------- 6|------------ 4 3--------|
B|------------ 9-------- 3|------ 3---- 4 3---- 3--|
G|------ 8------------ 8--|---- 5---------- 5------|
D|----10----------10------|------------------------|
A| 8-------------- 8------|------------------------|
E|------------------------| 6----------------------|
http://classicalguitartablature.blogspot.com/
E| 3----------------------|------------------------|
B| 3----------------------|-------- 8-- 7 8-- 9----|
G| 3------ 4-- 6 5-- 4----|---- 7------------------|
D|---- 5---------------- 8|---------------------- 6|
A| 6-------------------- 6|---------------------- 5|
E|------------------------|------------------------|
http://classicalguitartablature.blogspot.com/
E|------------------------|------------ 4-- 710----|
B| 8-- 6-------- 6-- 5----| 4-- 3-- 6------ 9------|
G| 5-------- 5------------| 4------ 4---- 7--------|
D|-------- 6------------ 3|-------- 6--------------|
A|------------------------|------------------------|
E|---------------------- 3|------ 4------ 7------ 8|
http://classicalguitartablature.blogspot.com/
E|10---------- 8----------|-------------- 7-- 6----|
B| 8-- 8-------- 8------ 2|-- 1-- 0-- 1----------11|
G| 7------ 7-------- 9-- 3|---------------------- 8|
D|---------------------- 2|------------------------|
A|---------------------- 3|------------------------|
E|------------------------|------------------------|
http://classicalguitartablature.blogspot.com/
E|---------------------- 6|------------ 4 3--------|
B|------------ 9-------- 3|------ 3---- 4 3---- 3--|
G|------ 8------------ 8--|---- 5---------- 5------|
D|----10----------10------|------------------------|
A| 8-------------- 8------|------------------------|
E|------------------------| 6----------------------|
http://classicalguitartablature.blogspot.com/
E| 4---------- 3----------|------------------------|
B| 3-------------------- 9|------------ 8----------|
G| 3------ 3---- 3---- 5--| 8---- 8------------ 8--|
D|---- 5------------------|---- 8---------- 8------|
A| 6------------ 6--------|------------------------|
E|------------------------| 8-------------- 8------|
http://classicalguitartablature.blogspot.com/
E|------------------------|---------------- 7------|
B| 4---------- 3------ 3--|---- 3-- 4-- 7------10--|
G| 5---- 5------ 6--------| 6------------ 8--------|
D| 4---- 4------ 4--------|---- 4------------------|
A| 5------------ 5--------| 5------------ 9--------|
E|------------------------|------------------------|
http://classicalguitartablature.blogspot.com/
E| 8---------- 7 5-- 8-- 7|------------------------|
B| 6------ 6--------------|------------ 8----------|
G| 7-- 7------------------|-------- 8-------- 8----|
D|------------------------|---- 9---------------- 9|
A| 5----------------------|------------------------|
E|---------------------- 9|------------------------|
http://classicalguitartablature.blogspot.com/
E|------------------------|------------------------|
B|---------------------- 8|-------------- 7--------|
G|------------------------|------------------------|
D|------------------------|------ 5----------------|
A|------------------------|------------------------|
E|------------------------|------------------------|
http://classicalguitartablature.blogspot.com/
E|---------------------- 1|-------------- 1---- 3--|
B| 6---------- 4-------- 4|------------ 4 4--------|
G|------ 4-- 3-------- 3 2|------ 2------ 2------ 1|
D|---- 5---------- 5------|---- 1------------------|
A| 3-------------- 3------|------------------------|
E|---------------------- 1|-------------- 1------ 1|
http://classicalguitartablature.blogspot.com/
E| 3-- 1-------- 1---- 0--|------------------------|
B| 1----------------------| 4-- 3-- 2-- 3-- 4-- 3--|
G|------------ 1----------| 4-------- 4---- 4------|
D|------ 3-------------- 3|---------------- 3------|
A|------------------------|------------------------|
E|---------------------- 3|---------------- 3------|
http://classicalguitartablature.blogspot.com/
E|---------------------- 1|-------------- 1---- 3--|
B| 6---------- 4-------- 4|------------ 4 4------ 1|
G|------ 4-- 3-------- 3 2|------ 2------ 2------ 1|
D|---- 5---------- 5------|---- 1------------------|
A| 3-------------- 3------|------------------------|
E|---------------------- 1|-------------- 1------ 1|
http://classicalguitartablature.blogspot.com/
E| 3-- 1 0---- 1 3---- 4--|------------------------|
B|-------------- 6--------| 9-- 8-- 7-- 8-- 9-- 811|
G|-------------- 5--------| 9-------------------- 8|
D|---------------------- 8|-------------- 8--------|
A|------------------------|------------------------|
E|-------------- 4------ 8|------------------------|
http://classicalguitartablature.blogspot.com/
E|------------------------| 6------------ 6-- 8----|
B|------------ 9----------| 6---------- 9----------|
G|------ 8------------ 8--| 7---- 7-------------- 6|
D|----10----------10------|---- 6------------------|
A| 8-------------- 8------|---------------------- 6|
E|------------------------| 6----------------------|
http://classicalguitartablature.blogspot.com/
E| 8-- 6-- 6--------------|-------------------- 6--|
B| 6---------- 9-- 9 8----| 8-- 6-- 6-- 5-- 5------|
G|------------------------| 6------ 6-- 6-- 6---- 5|
D|---------------------- 8|-------- 5-- 5-- 5------|
A|---------------------- 6|-------- 6--------------|
E|------------------------|---------------------- 4|
http://classicalguitartablature.blogspot.com/
E| 6-- 4-- 4-- 3----------| 1-- 0-- 0-- 1 3-- 4----|
B| 4-------------- 8-- 6--| 1------------ 1--------|
G|---------------- 8------| 1------------ 1------ 5|
D|-------------- 6--------|------------------------|
A|------------------------|---------------------- 5|
E|-------------- 8------ 1|---------------- 1------|
http://classicalguitartablature.blogspot.com/
E| 4----------------------|------------------------|
B| 6-- 7------ 3-- 6-- 5--| 4-- 3-- 2-- 3-- 6-- 4--|
G|-------- 5------ 5------| 4------------ 4--------|
D|-------------- 6------ 3|-------------- 3--------|
A|-------------- 5--------|------------------------|
E|---------------------- 3|-------------- 3--------|
http://classicalguitartablature.blogspot.com/
E|-------------------- 410|-- 8-- 4----------------|
B|------------ 3 4--------|------------ 4-- 3-- 1--|
G| 5---- 5--------------10|-- 8---- 5------ 1------|
D|---- 6------------------|------------ 5-- 1------|
A|------------------------|------------------------|
E| 4----------------------|-------------- 4--------|
http://classicalguitartablature.blogspot.com/
E|------ 1-------------- 3|---- 1------------------|
B|-------------------- 1 1|------ 1----------------|
G| 3---------- 1-- 3------|---------- 1-- 0--------|
D| 1----------------------|------------------ 3-- 1|
A|------------------------|------------------------|
E| 1-------------------- 1|---------------- 1---- 1|
http://classicalguitartablature.blogspot.com/
E|------------------------|------------------------|
B| 4-- 1------------------|------------------------|
G| 1------ 3-- 1-- 0------| 3-- 1-- 0-- 1---- 3----|
D|-------------------- 3 1|------------------ 3----|
A|---------------- 3------|------------------------|
E|---------------------- 4|---------------- 3------|
http://classicalguitartablature.blogspot.com/
E|------------------------|------------------------|
B|------------------------|------------------------|
G|------------------------| 4---------------- 4----|
D|------------------------| 3---------------- 3----|
A|------------------------| 2-------------- 4------|
E|------------------------|------------------------|
http://classicalguitartablature.blogspot.com/
E|------------------------|------------------------|
B|------------------------| 1----------------------|
G|------------------------| 2----------------------|
D|---------------------- 2|------------------------|
A|---------------------- 3|------------------------|
E|------------------------|------------------------|
http://classicalguitartablature.blogspot.com/
0 com

Dear Old Stockholm (BASIC)

Jazz standard fingerstyle chord melody guitar BASIC arrangement played in the key of Cm.
Dear Old Stockholm - BASIC Arrangement played in the key of Cm.
http://classicalguitartablature.blogspot.com/
E|--------------------------------|--------------------------------|
B|------------ 5------------------|------------ 5---------- 5------|
G|-------- 5-------------- 5------|-------- 4-- 4---------- 4------|
D|---- 3-------------- 3------ 3--|---- 3-------------- 3------ 3--|
A| 5------------------------------| 5------------------------------|
E|---------------- 5--------------|---------------- 5--------------|
http://classicalguitartablature.blogspot.com/
E|--------------------------------|--------------------------------|
B|------------ 5------------------|------------ 5---------- 5------|
G|-------- 5-------------- 5------|-------- 4-- 4---------- 4------|
D|---- 3-------------- 3------ 3--|---- 3-------------- 3------ 3--|
A| 5------------------------------| 5------------------------------|
E|---------------- 5--------------|---------------- 5--------------|
http://classicalguitartablature.blogspot.com/
http://classicalguitartablature.blogspot.com/
E|--------------------------------|----------------------10----12--|
B| 3---------- 5-- 6------ 8--10--|--------------------11------10--|
G| 5------ 5------ 5---------- 7--|------ 7------------12------10--|
D|---- 3-------------- 7------ 8--|---- 8------ 8------------------|
A| 5------------------------------|---------------- 0--------------|
E|---------------- 5--------------| 0----------------------------10|
http://classicalguitartablature.blogspot.com/
E|------10---- 8-------- 6---- 5--|---------------------------- 5--|
B|------------ 8-------------- 6--|---------------------------- 3--|
G|------------ 6-------------- 5--|------ 5-------------- 5---- 3--|
D|----10-------------- 5----------|---- 7------ 7------ 4----------|
A|------------------------------ 5|--------------------------------|
E|-------------- 5----------------|---------------- 4--------------|
http://classicalguitartablature.blogspot.com/
E|---- 3------ 3 6-- 8 6 5--------|-------------------- 5------ 0--|
B|---- 3-- 7---- 5------------ 8--| 6------------------ 6-- 6------|
G|---- 3-------- 6----------------| 5------------------ 7-- 7------|
D|--------------------------------|---- 7------ 7---------- 7------|
A|--------------------------------| 5------------------------------|
E| 3------------ 5----------------|-------- 8------ 7------------ 0|
http://classicalguitartablature.blogspot.com/
E|--------------------------------|--------------------------------|
B|------------ 8------------------|-------------------- 4----------|
G|-------- 7-------------- 7------|-------- 6------------------ 4--|
D|---- 8-------------- 8------ 8--|---- 5------ 5---------- 5------|
A|--------------------------------|---------------- 6--------------|
E|---------------- 6------------ 5|--------------------------------|
http://classicalguitartablature.blogspot.com/
E|--------------------------------|--------------------------------|
B|------------ 5------------------|------------ 5---------- 5------|
G|-------- 5-------------- 5------|-------- 4-- 4---------- 4------|
D|---- 3-------------- 3------ 3--|---- 3-------------- 3------ 3--|
A| 5------------------------------| 5------------------------------|
E|---------------- 5--------------|---------------- 5--------------|
http://classicalguitartablature.blogspot.com/
E|--------------------------------|--------------------------------|
B|------------ 5------------------|------------ 5---------- 5------|
G|-------- 5-------------- 5------|-------- 4-- 4---------- 4------|
D|---- 3-------------- 3------ 3--|---- 3-------------- 3------ 3--|
A| 5------------------------------| 5------------------------------|
E|---------------- 5--------------|---------------- 5--------------|
http://classicalguitartablature.blogspot.com/
E|--------------------------------|----------------------10----12--|
B| 3---------- 5-- 6------ 8--10--|--------------------11------10--|
G| 5------ 5------ 5---------- 7--|------ 7------------12------10--|
D|---- 3-------------- 7------ 8--|---- 8------ 8------------------|
A| 5------------------------------|---------------- 0--------------|
E|---------------- 5--------------| 0----------------------------10|
http://classicalguitartablature.blogspot.com/
E|------10---- 8-------- 6---- 5--|---------------------------- 5--|
B|------------ 8-------------- 6--|---------------------------- 3--|
G|------------ 6-------------- 5--|------ 5-------------- 5---- 3--|
D|----10-------------- 5----------|---- 7------ 7------ 4----------|
A|------------------------------ 5|--------------------------------|
E|-------------- 5----------------|---------------- 4--------------|
http://classicalguitartablature.blogspot.com/
E|---- 3------ 3 6-- 8 6 5--------|-------------------- 5------ 0--|
B|---- 3-- 7---- 5------------ 8--| 6------------------ 6-- 6------|
G|---- 3-------- 6----------------| 5------------------ 7-- 7------|
D|--------------------------------|---- 7------ 7---------- 7------|
A|--------------------------------| 5------------------------------|
E| 3------------ 5----------------|-------- 8------ 7------------ 0|
http://classicalguitartablature.blogspot.com/
E|--------------------------------|--------------------------------|
B|------------ 8------------------|-------------------- 4----------|
G|-------- 7-------------- 7------|-------- 6------------------ 4--|
D|---- 8-------------- 8------ 8--|---- 5------ 5---------- 5------|
A|--------------------------------|---------------- 6--------------|
E|---------------- 6------------ 5|--------------------------------|
http://classicalguitartablature.blogspot.com/
E|--------------------------------|--------------------------------|
B|------------ 5------------------|------------ 5---------- 5------|
G|-------- 5-------------- 5------|-------- 4-- 4---------- 4------|
D|---- 3-------------- 3------ 3--|---- 3-------------- 3------ 3--|
A| 5------------------------------| 5------------------------------|
E|---------------- 5--------------|---------------- 5--------------|
http://classicalguitartablature.blogspot.com/
E|--------------------------------|--------------------------------|
B|------------ 5------------------|------------ 5---------- 5------|
G|-------- 5-------------- 5------|-------- 4-- 4---------- 4------|
D|---- 3-------------- 3------ 3--|---- 3-------------- 3------ 3--|
A| 5------------------------------| 5------------------------------|
E|---------------- 5--------------|---------------- 5--------------|
http://classicalguitartablature.blogspot.com/
E|---- 1---------------------- 5--|---- 5------ 3------------------|
B|---- 1---------- 6-- 5-- 6-- 3--|---- 3------ 3------------------|
G|---- 0------ 0-- 5-- 5-- 5-- 3--|------------ 3-------- 3--------|
D|-------- 0------ 3-- 3-- 3------|-------- 3---------- 3------ 3--|
A|---------------- 5--------------|-------------- 3----------------|
E| 1------------------------------| 3------------------------------|
http://classicalguitartablature.blogspot.com/
E|---- 1---------------------- 8--|---- 6---------- 9-- 8----------|
B|---- 1---------- 6-- 5-- 6-- 8--|---------- 6---- 9-- 8----------|
G|---- 0------ 0-- 5-- 5-- 5-- 7--|---------------- 7-- 6----------|
D|-------- 0------ 3-- 3-- 3------|---------------------------- 5--|
A|---------------- 5--------------|--------------------------------|
E| 1------------------------------| 0-------------- 6------ 5------|
http://classicalguitartablature.blogspot.com/
E|--------------------------------|----------------------10----12--|
B| 3---------- 5-- 6------ 8--10--|--------------------11------10--|
G| 5------ 5------ 5---------- 7--|------ 7------------12------10--|
D|---- 3-------------- 7------ 8--|---- 8------ 8------------------|
A| 5------------------------------|---------------- 0--------------|
E|---------------- 5--------------| 0----------------------------10|
http://classicalguitartablature.blogspot.com/
E|------10---- 8-------- 6---- 5--|---------------------------- 5--|
B|------------ 8-------------- 6--|---------------------------- 3--|
G|------------ 6-------------- 5--|------ 5-------------- 5---- 3--|
D|----10-------------- 5----------|---- 7------ 7------ 4----------|
A|------------------------------ 5|--------------------------------|
E|-------------- 5----------------|---------------- 4--------------|
http://classicalguitartablature.blogspot.com/
E|---- 3------ 3 6-- 8 6 5--------|-------------------- 5----------|
B|---- 3-- 7---- 5------------ 8--| 6---------------------- 6------|
G|---- 3-------- 6----------------| 5------ 5------------------ 5--|
D|--------------------------------|---- 7------ 7------------------|
A|--------------------------------| 5------------------------------|
E| 3------------ 5----------------|---------------- 5--------------|
http://classicalguitartablature.blogspot.com/
E|--------------------------------| 5---------- 5------------------|
B|---- 6---------- 6------ 8------| 6------------------------------|
G|---- 7------ 7-- 7--------------| 7------ 7-------------- 7------|
D|---- 8-- 8---------- 8------ 8--|---- 8-------------- 8------ 8--|
A|--------------------------------|--------------------------------|
E| 8-------------- 8--------------| 8-------------- 8--------------|
http://classicalguitartablature.blogspot.com/
E|--------------------------------| 5---------- 5------------------|
B|---- 6---------- 6------ 8------| 6------------------------------|
G|---- 7------ 7-- 7--------------| 7------ 7-------------- 7------|
D|---- 8-- 8---------- 8------ 8--|---- 8-------------- 8------ 8--|
A|--------------------------------|--------------------------------|
E| 8-------------- 8--------------| 8-------------- 8--------------|
http://classicalguitartablature.blogspot.com/
E|--------------------------------| 5------------------------------|
B|---- 6---------- 6------ 8------| 6---------- 8-------------- 6--|
G|---- 7------ 7-- 7--------------| 7------ 7-- 6-------- 6---- 3--|
D|---- 8-- 8---------- 8------ 8--|---- 8------ 5------ 5------ 3--|
A|--------------------------------|--------------------------------|
E| 8-------------- 8--------------| 8-------------- 5------------ 3|
http://classicalguitartablature.blogspot.com/
E|-------------- 3----------------|--------------------------------|
B|-------------- 5------------ 6--|--------------------------------|
G|-------- 3---- 3-------- 3-- 4--|--------------------------------|
D|---- 3------ 3------ 5------ 3--|---- 3--------------------------|
A|-------------- 0----------------| 5------------------------------|
E|--------------------------------|--------------------------------|
http://classicalguitartablature.blogspot.com/