To celebrate the anniversary, I am giving you (finally...) : iPhone LickByNeck !!!!!!

Angel Eyes (Intermediate)

Jazz tune fingerstyle chord melody guitar intermediate arrangement played in the key of Dm.
Angel Eyes - INTERMEDIATE ARRANGEMENT played in the key of Dm.
http://classicalguitartablature.blogspot.com/
E|--------------------------------|--------------------------------|
B|--------------------------------|--------------------------------|
G|-------- 2------------ 3--------|-------- 4-------------- 5------|
D|---- 3------ 3------ 3------ 3--|---- 3------ 3------ 3------ 3--|
A| 5-------------- 5------------ 5|---------------- 5--------------|
E|--------------------------------|--------------------------------|
http://classicalguitartablature.blogspot.com/
E|--------------------------------|--------------------------------|
B|--------------------------------|--------------------------------|
G|-------- 2-------------- 3------|------ 4-------------- 5--------|
D|---- 3------ 3------ 3------ 3--|---- 3------ 3------ 3------ 3--|
A| 5------------ 5----------------| 5-------------- 5--------------|
E|--------------------------------|--------------------------------|
http://classicalguitartablature.blogspot.com/
http://classicalguitartablature.blogspot.com/
E|-------- 5-- 4-------------- 3--| 1------------------------------|
B|---- 3-- 5-- 1-------------- 1--| 3------ 6 3 6------------------|
G|---- 5-- 3 3 1-------------- 1--| 2------ 4 4 5------------------|
D|---- 3-------------- 1----------|---- 3-- 3 3 6------ 6------ 6--|
A| 5------ 4------ 3------ 1------| 2------------------------------|
E|--------------------------------|-------- 5------ 6------ 4---- 5|
http://classicalguitartablature.blogspot.com/
E|------------ 512----12--10------|--------------------------------|
B|---- 3 6------10-------- 9--10--|--------------------------------|
G|---- 5 4------10---------- 710--|----10------10------ 9------ 7--|
D|-- 3------ 3------ 9--------10--|--10------12------ 7------ 9----|
A|-------------- 8-------- 7------|--------------------------------|
E|------ 3------------------------|11------10------ 9---- 7------ 5|
http://classicalguitartablature.blogspot.com/
E|------ 5---- 4------------------|------------ 1------------------|
B|---- 3 5---- 3-------------- 8--| 6-- 6-- 3-- 3-------------- 3--|
G|---- 5 4---- 1-------------- 6--| 4-- 4-- 2-- 1------ 1------ 1--|
D|-- 3---------------- 3------ 5--| 7-- 7-- 2-------- 3------ 3----|
A|--------------------------------| 5------ 3------ 2---- 1--------|
E|------ 3-------- 1------ 0------|--------------------------------|
http://classicalguitartablature.blogspot.com/
E|---------------- 1--------------|--------------------------------|
B| 6-- 3-- 6-- 3-- 3------ 6-- 3--|--------------------------------|
G| 4-- 4-- 4-- 4-- 1-- 1-- 6-- 5--|---- 5------ 5------ 2------ 6--|
D| 3-- 3-- 3-- 3---- 3---- 5-- 3--|-- 3------ 3------ 5------ 5----|
A|--------------------------------| 5------ 3------ 4---- 6--------|
E| 4------ 3------ 1------ 0------|--------------------------------|
http://classicalguitartablature.blogspot.com/
E|-------- 5-- 4-------------- 3--| 1------------------------------|
B|---- 3-- 5-- 1-------------- 1--| 3------ 6 3 6------------------|
G|---- 5-- 3 3 1-------------- 1--| 2------ 4 4 5------------------|
D|---- 3-------------- 1----------|---- 3-- 3 3 6------ 6------ 6--|
A| 5------ 4------ 3------ 1------| 2------------------------------|
E|--------------------------------|-------- 5------ 6------ 4---- 5|
http://classicalguitartablature.blogspot.com/
E|------------ 512----12--10------|--------------------------------|
B|---- 3 6------10-------- 9--10--|--------------------------------|
G|---- 5 4------10---------- 710--|----10------10------ 9------ 7--|
D|-- 3------ 3------ 9--------10--|--10------12------ 7------ 9----|
A|-------------- 8-------- 7------|--------------------------------|
E|------ 3------------------------|11------10------ 9---- 7------ 5|
http://classicalguitartablature.blogspot.com/
E|------ 5---- 4------------------|------------ 1------------------|
B|---- 3 5---- 3-------------- 8--| 6-- 6-- 3-- 3-------------- 3--|
G|---- 5 4---- 1-------------- 6--| 4-- 4-- 2-- 1------ 1------ 1--|
D|-- 3---------------- 3------ 5--| 7-- 7-- 2-------- 3------ 3----|
A|--------------------------------| 5------ 3------ 2---- 1--------|
E|------ 3-------- 1------ 0------|--------------------------------|
http://classicalguitartablature.blogspot.com/
E|---------------- 1--------------|------------------------10----10|
B| 6-- 3-- 6-- 3-- 3------ 6-- 3--|------------------------ 9---- 8|
G| 4-- 4-- 4-- 4-- 1-- 1-- 6-- 5--|---- 5------ 3------ 2-- 7-- 7--|
D| 3-- 3-- 3-- 3---- 3---- 5-- 3--|-- 3------ 5------ 3------ 9----|
A|--------------------------------| 5------ 4---- 3----------------|
E| 4------ 3------ 1------ 0------|------------------------ 7------|
http://classicalguitartablature.blogspot.com/
E|----10--------------10-- 8------|------------------------------10|
B|---- 8--------------13--11-- 6--|---- 6--------------------------|
G| 8-- 8--------------10-- 8-- 7--|---- 5------ 5------ 4------ 4--|
D|------------ 8-------------- 8--|---- 7---- 7------ 3------ 3----|
A|---------------- 0------10------| 8------ 6---- 5-------- 4------|
E| 8------ 6----------------------|--------------------------------|
http://classicalguitartablature.blogspot.com/
E|----10----10--10------ 8---- 1--|------------------------10------|
B| 8--10----1013-- 8-- 8 8---- 3--|------------------------ 7------|
G| 8--10----1010---- 7-- 7---- 3--|---- 3------ 3------ 5-- 7-- 7--|
D|------------10------------------|-- 3------ 3------ 3------ 6----|
A|-------------- 6------ 7--------|--------------------------------|
E| 8------10-------------------- 1|-------- 3------ 4------ 6------|
http://classicalguitartablature.blogspot.com/
E| 9------------------------ 9----|---------------------------- 1--|
B| 7-- 7------ 8-- 7--12------12 5|-------------------- 2------ 3 9|
G| 7-------- 6---- 7-- 9-------- 6|------------ 6------ 2---- 1 1 6|
D|-- 7------------ 7--12----------|---- 6---- 6------ 0------ 3-- 8|
A|----------------------11--------|------------------------------ 6|
E| 7------ 6------ 5------------ 5|------ 4------ 2------ 1--------|
http://classicalguitartablature.blogspot.com/
E|-------- 4-- 4---------- 4------|--------------------------------|
B|---- 9-- 7-- 4------ 4-- 1--10--|---------------------------- 5--|
G|---- 6-- 4-- 3---- 3---- 1-- 7--|---- 7------ 9------ 9------ 6--|
D|---- 8-------------------- 4 9--|-- 9------ 7------ 7------ 5----|
A|-------- 5---- 4-------- 3------|------------------------ 6------|
E|--------------------------------| 7------ 8------ 9--------------|
http://classicalguitartablature.blogspot.com/
E|-------- 5-- 4-------------- 3--| 1------------------------------|
B|---- 3-- 5-- 1-------------- 1--| 3------ 6 3 6------------------|
G|---- 5-- 3 3 1-------------- 1--| 2------ 4 4 5------------------|
D|---- 3-------------- 1----------|---- 3-- 3 3 6------ 6------ 6--|
A| 5------ 4------ 3------ 1------| 2------------------------------|
E|--------------------------------|-------- 5------ 6------ 4---- 5|
http://classicalguitartablature.blogspot.com/
E|------------ 512----12--10------|--------------------------------|
B|---- 3 6------10-------- 9--10--|--------------------------------|
G|---- 5 4------10---------- 710--|----10------10------ 9------ 7--|
D|-- 3------ 3------ 9--------10--|--10------12------ 7------ 9----|
A|-------------- 8-------- 7------|--------------------------------|
E|------ 3------------------------|11------10------ 9---- 7------ 5|
http://classicalguitartablature.blogspot.com/
E|------ 5---- 4------------------|------------ 1------------------|
B|---- 3 5---- 3-------------- 8--| 6-- 6-- 3-- 3-------------- 3--|
G|---- 5 4---- 1-------------- 6--| 4-- 4-- 2-- 1------ 1------ 1--|
D|-- 3---------------- 3------ 5--| 7-- 7-- 2-------- 3------ 3----|
A|--------------------------------| 5------ 3------ 2---- 1--------|
E|------ 3-------- 1------ 0------|--------------------------------|
http://classicalguitartablature.blogspot.com/
E|---------------- 1--------------|--------------------------------|
B| 6-- 3-- 6-- 3-- 3------ 6-- 3--|------------------------------ 6|
G| 4-- 4-- 4-- 4-- 1-- 1-- 6-- 5--|---- 5------ 3------ 2------ 7--|
D| 3-- 3-- 3-- 3---- 3---- 5-- 3--|-- 3------ 5------ 3------ 7----|
A|--------------------------------| 5------ 4---- 3----------------|
E| 4------ 3------ 1------ 0------|---------------------- 7--------|
http://classicalguitartablature.blogspot.com/
E|-------------------- 5-- 1-- 5--|--------------------------------|
B|-------- 6-- 3-- 6-- 6-- 2-- 3--|---- 3------ 3---------------- 6|
G| 5-- 7-- 4-- 4-- 6-- 6-- 2-- 2--|-- 2------ 2-------- 5------ 5 3|
D| 6------ 3-- 3------------------|------------------ 7------ 7-- 5|
A|--------------------------------|---------------- 6---- 5--------|
E| 6------ 4------ 5------ 3---- 1|-------- 0----------------------|
http://classicalguitartablature.blogspot.com/
E|---------------- 8-- 5------ 5--|--------------------------------|
B|---- 3-- 6------ 8-- 8-- 8-- 5--|--------------------------------|
G|---- 3-- 7-- 7-- 7-- 7-- 6-- 4--|--------------------------------|
D|-------- 7-------------- 5------|--------------------------------|
A| 4------------------------------|--------------------------------|
E|-------- 8------ 7-- 6-- 5---- 3|--------------------------------|
http://classicalguitartablature.blogspot.com/

0 ความคิดเห็น:

แสดงความคิดเห็น