To celebrate the anniversary, I am giving you (finally...) : iPhone LickByNeck !!!!!!

Cottontail (Intermediate)

Duke Ellington's tune fingerstyle chord melody guitar intermediate arrangement played in the key of Ab.
Cottontail - INTERMEDIATE ARRANGEMENT played in the key of Ab
http://classicalguitartablature.blogspot.com/
E|----10----------------------13--|11-- 9------ 8-------------- 4--|
B|---- 9----------------------11--| 9-- 9------ 9------11------ 4--|
G| 5--11------11------11------11--|10--10------ 7------10------ 5--|
D| 4----------------------10------|-------------------- 9----------|
A|-------- 9----------------------|---------------- 8------10------|
E| 4--------------12------10------| 9------11----------------------|
http://classicalguitartablature.blogspot.com/
E|-------- 2-- 3------------------|-------- 3-- 4------------------|
B|---- 6-- 4-- 2------ 4-- 5-- 6--|-- 7---- 4-- 4------------------|
G|---- 5-- 2-- 3---------- 6-- 5--|-------- 3-- 3---------- 6------|
D|---- 6------------------ 5-- 6--|-------------------- 3------ 5--|
A|------------------------ 6---- 5|-------- 4------ 3--------------|
E| 4------ 2------ 1--------------|------------------------ 6------|
http://classicalguitartablature.blogspot.com/
http://classicalguitartablature.blogspot.com/
E|---- 6------------------ 8------|--------------------------------|
B|---- 4-------------- 9----------|11----------11------------------|
G| 3--------------10--------------|10---------- 8-- 6--------------|
D| 3---------- 3------------------|---- 8------10------ 5------ 5--|
A|---------------- 8--------------|--------------------------------|
E| 4------ 3--------------11------| 9------ 8------ 6------ 5------|
http://classicalguitartablature.blogspot.com/
E|---- 6---------- 6---------- 8 6|--------------------------------|
B|---- 4---------- 9---------- 8--| 6-- 9-- 6------ 4--------------|
G| 3-- 3---------- 8---------- 6--| 6------ 6------ 3---------- 6--|
D| 1---------- 2------ 6----------|------------ 6------ 2------ 5--|
A|---------------- 8------ 7------| 6------ 8----------------------|
E| 3------ 2----------------------|---------------- 3------ 5------|
http://classicalguitartablature.blogspot.com/
E|----10----------------------13--|11-- 9------ 8-------------- 4--|
B|---- 9----------------------11--| 9-- 9------ 9------11------ 4--|
G| 5--11------11------11------11--|10--10------ 7------10------ 5--|
D| 4----------------------10------|-------------------- 9----------|
A|-------- 9----------------------|---------------- 8------10------|
E| 4--------------12------10------| 9------11----------------------|
http://classicalguitartablature.blogspot.com/
E|-------- 2-- 3------------------|--------------------------------|
B|---- 6-- 4-- 2------ 4-- 5-- 6--|---- 2-- 3-- 4------------------|
G|---- 5-- 2-- 3---------- 6-- 5--|---- 2-- 2-- 6------------------|
D|---- 6------------------ 5-- 6--|---- 2-- 1-- 6------ 6------ 5--|
A|------------------------ 6------| 5-- 4-- 2----------------------|
E| 4------ 2------ 1--------------|---------------- 6------ 5------|
http://classicalguitartablature.blogspot.com/
E|---- 6------------------ 8------|--------------------------------|
B|---- 4-------------- 9----------|11----------11------------------|
G| 3--------------10--------------|10---------- 8-- 6--------------|
D| 3---------- 3------------------|---- 8------10------ 5------ 5--|
A|---------------- 8--------------|--------------------------------|
E| 4------ 3--------------11------| 9------ 8------ 6------ 5------|
http://classicalguitartablature.blogspot.com/
E|---- 6---------- 6---------- 8 6|--------------------------------|
B|---- 4---------- 9---------- 8--| 6-- 9-- 6------ 4--------------|
G| 3-- 3---------- 8---------- 6--| 6------ 6------ 3---------- 6--|
D| 1---------- 2------ 6----------|------------ 6------ 2------ 5--|
A|---------------- 8------ 7------| 6------ 8----------------------|
E| 3------ 2----------------------|---------------- 3------ 5------|
http://classicalguitartablature.blogspot.com/
E|----10----------------------13--|11-- 9------ 8-------------- 4--|
B|---- 9----------------------11--| 9-- 9------ 9------11------ 4--|
G| 5--11------11------11------11--|10--10------ 7------10------ 5--|
D| 4----------------------10------|-------------------- 9----------|
A|-------- 9----------------------|---------------- 8------10------|
E| 4--------------12------10------| 9------11----------------------|
http://classicalguitartablature.blogspot.com/
E|-------- 2-- 3------------------|-------- 3-- 4------------------|
B|---- 6-- 4-- 2------ 4-- 5-- 6--|-- 7---- 4-- 4------------------|
G|---- 5-- 2-- 3---------- 6-- 5--|-------- 3-- 3---------- 6------|
D|---- 6------------------ 5-- 6--|-------------------- 3-- 6------|
A|------------------------ 6---- 5|-------- 4------ 3--------------|
E| 4------ 2------ 1--------------|------------------------ 6---- 4|
http://classicalguitartablature.blogspot.com/
E|--------------------------------|--------------------------------|
B|--------------------------------|--------------------------------|
G| 3---------- 5------ 6------ 4--|---- 3------ 3------ 5------ 5--|
D|------------ 3------ 5------ 3--|---- 2------ 3------ 5------ 5--|
A|------------------------ 4------| 3------ 5------ 6------ 7------|
E| 3------ 4------ 6--------------|--------------------------------|
http://classicalguitartablature.blogspot.com/
E|--------------------------------|--------------------------------|
B|--------------------------------|--------------------------------|
G| 5---------- 4------ 3------ 3--| 5------------------ 3----------|
D|---- 5------ 3------ 5------ 5--|---- 3------ 3------ 1------ 1--|
A| 6------ 5------ 3--------------|--------------------------------|
E|------------------------ 6------| 5------ 4------ 3------ 2------|
http://classicalguitartablature.blogspot.com/
E|--------------------------------|--------------------------------|
B|--------------------------------|---- 3------ 4------ 6------ 6--|
G| 1---------- 3------ 5------ 5--|---- 1------ 1------ 3------ 3--|
D|---- 1------ 2------ 3------ 4--|---- 3------ 1------ 3------ 3--|
A|--------------------------------| 1------ 3---- 4-------- 5------|
E| 1------ 3------ 4------ 5------|--------------------------------|
http://classicalguitartablature.blogspot.com/
E|--------------------------------|--------------------------------|
B| 6---------- 6-------------- 6--|--------------------------------|
G| 6---------- 5------ 5------ 5--| 7---------- 6------ 6------ 3--|
D|---- 6------ 6------ 6-------- 6|---- 6------ 6------ 5------ 2--|
A| 6---- 5-------- 4------ 3------|--------------------------------|
E|--------------------------------| 7------ 6------ 5------ 3------|
http://classicalguitartablature.blogspot.com/
E|---- 6------------------ 8------|--------------------------------|
B|---- 4-------------- 9----------|11----------11------------------|
G| 3--------------10--------------|10---------- 8-- 6--------------|
D| 3---------- 3------------------|---- 8------10------ 5------ 5--|
A|---------------- 8--------------|--------------------------------|
E| 4------ 3--------------11------| 9------ 8------ 6------ 5------|
http://classicalguitartablature.blogspot.com/
E|---- 6---------- 6---------- 8 6|--------------------------------|
B|---- 4---------- 9---------- 8--| 6-- 9-- 6------ 4--------------|
G| 3-- 3---------- 8---------- 6--| 6------ 6------ 3---------- 6--|
D| 1---------- 2------ 6----------|------------ 6------ 2------ 5--|
A|---------------- 8------ 7------| 6------ 8----------------------|
E| 3------ 2----------------------|---------------- 3------ 5------|
http://classicalguitartablature.blogspot.com/
E|----10----------------------13--|11-- 9------ 8-------------- 4--|
B|---- 9----------------------11--| 9-- 9------ 9------11------ 4--|
G| 5--11------11------11------11--|10--10------ 7------10------ 5--|
D| 4----------------------10------|-------------------- 9----------|
A|-------- 9----------------------|---------------- 8------10------|
E| 4--------------12------10------| 9------11----------------------|
http://classicalguitartablature.blogspot.com/
E|-------- 2-- 3------------------|-------- 3-- 4-------------- 4--|
B|---- 6-- 4-- 2------ 4-- 5-- 6--|-- 7---- 4-- 4-------------- 4--|
G|---- 5-- 2-- 3---------- 6-- 5--|-------- 3-- 3---------- 6-- 5--|
D|---- 6------------------ 5-- 6--|-------------------- 3-- 5------|
A|------------------------ 6---- 5|-------- 4------ 3--------------|
E| 4------ 2------ 1--------------|------------------------ 6------|
http://classicalguitartablature.blogspot.com/
E|-------- 2-- 3------------------|-------- 3-- 4-------------- 4--|
B|---- 6-- 4-- 2------ 4-- 5-- 6--|-- 7---- 4-- 4-------------- 4--|
G|---- 5-- 2-- 3---------- 6-- 5--|-------- 3-- 3---------- 6-- 5--|
D|---- 6------------------ 5-- 6--|-------------------- 3-- 5------|
A|------------------------ 6---- 5|-------- 4------ 3--------------|
E| 4------ 2------ 1--------------|------------------------ 6------|
http://classicalguitartablature.blogspot.com/
E|-------- 2-- 3------------------|-------- 3-- 4------------------|
B|---- 6-- 4-- 2------ 4-- 5-- 6--|-- 7---- 4-- 4---------------- 9|
G|---- 5-- 2-- 3---------- 6-- 5--|-------- 3-- 3---------------- 6|
D|---- 6------------------ 5-- 6--|--------------------------------|
A|------------------------ 6---- 5|-------- 4-- 3------------------|
E| 4------ 2------ 1--------------|--------------------------------|
http://classicalguitartablature.blogspot.com/
E|------------------ 4------------|--------------------------------|
B|--------------------------------|--------------------------------|
G|---------------- 3--------------|--------------------------------|
D| 6------------------------------|--------------------------------|
A|--------------------------------|--------------------------------|
E| 6-------------- 4--------------|--------------------------------|
http://classicalguitartablature.blogspot.com/

0 ความคิดเห็น:

แสดงความคิดเห็น