To celebrate the anniversary, I am giving you (finally...) : iPhone LickByNeck !!!!!!

Dear Old Stockholm (BASIC)

Jazz standard fingerstyle chord melody guitar BASIC arrangement played in the key of Cm.
Dear Old Stockholm - BASIC Arrangement played in the key of Cm.
http://classicalguitartablature.blogspot.com/
E|--------------------------------|--------------------------------|
B|------------ 5------------------|------------ 5---------- 5------|
G|-------- 5-------------- 5------|-------- 4-- 4---------- 4------|
D|---- 3-------------- 3------ 3--|---- 3-------------- 3------ 3--|
A| 5------------------------------| 5------------------------------|
E|---------------- 5--------------|---------------- 5--------------|
http://classicalguitartablature.blogspot.com/
E|--------------------------------|--------------------------------|
B|------------ 5------------------|------------ 5---------- 5------|
G|-------- 5-------------- 5------|-------- 4-- 4---------- 4------|
D|---- 3-------------- 3------ 3--|---- 3-------------- 3------ 3--|
A| 5------------------------------| 5------------------------------|
E|---------------- 5--------------|---------------- 5--------------|
http://classicalguitartablature.blogspot.com/
http://classicalguitartablature.blogspot.com/
E|--------------------------------|----------------------10----12--|
B| 3---------- 5-- 6------ 8--10--|--------------------11------10--|
G| 5------ 5------ 5---------- 7--|------ 7------------12------10--|
D|---- 3-------------- 7------ 8--|---- 8------ 8------------------|
A| 5------------------------------|---------------- 0--------------|
E|---------------- 5--------------| 0----------------------------10|
http://classicalguitartablature.blogspot.com/
E|------10---- 8-------- 6---- 5--|---------------------------- 5--|
B|------------ 8-------------- 6--|---------------------------- 3--|
G|------------ 6-------------- 5--|------ 5-------------- 5---- 3--|
D|----10-------------- 5----------|---- 7------ 7------ 4----------|
A|------------------------------ 5|--------------------------------|
E|-------------- 5----------------|---------------- 4--------------|
http://classicalguitartablature.blogspot.com/
E|---- 3------ 3 6-- 8 6 5--------|-------------------- 5------ 0--|
B|---- 3-- 7---- 5------------ 8--| 6------------------ 6-- 6------|
G|---- 3-------- 6----------------| 5------------------ 7-- 7------|
D|--------------------------------|---- 7------ 7---------- 7------|
A|--------------------------------| 5------------------------------|
E| 3------------ 5----------------|-------- 8------ 7------------ 0|
http://classicalguitartablature.blogspot.com/
E|--------------------------------|--------------------------------|
B|------------ 8------------------|-------------------- 4----------|
G|-------- 7-------------- 7------|-------- 6------------------ 4--|
D|---- 8-------------- 8------ 8--|---- 5------ 5---------- 5------|
A|--------------------------------|---------------- 6--------------|
E|---------------- 6------------ 5|--------------------------------|
http://classicalguitartablature.blogspot.com/
E|--------------------------------|--------------------------------|
B|------------ 5------------------|------------ 5---------- 5------|
G|-------- 5-------------- 5------|-------- 4-- 4---------- 4------|
D|---- 3-------------- 3------ 3--|---- 3-------------- 3------ 3--|
A| 5------------------------------| 5------------------------------|
E|---------------- 5--------------|---------------- 5--------------|
http://classicalguitartablature.blogspot.com/
E|--------------------------------|--------------------------------|
B|------------ 5------------------|------------ 5---------- 5------|
G|-------- 5-------------- 5------|-------- 4-- 4---------- 4------|
D|---- 3-------------- 3------ 3--|---- 3-------------- 3------ 3--|
A| 5------------------------------| 5------------------------------|
E|---------------- 5--------------|---------------- 5--------------|
http://classicalguitartablature.blogspot.com/
E|--------------------------------|----------------------10----12--|
B| 3---------- 5-- 6------ 8--10--|--------------------11------10--|
G| 5------ 5------ 5---------- 7--|------ 7------------12------10--|
D|---- 3-------------- 7------ 8--|---- 8------ 8------------------|
A| 5------------------------------|---------------- 0--------------|
E|---------------- 5--------------| 0----------------------------10|
http://classicalguitartablature.blogspot.com/
E|------10---- 8-------- 6---- 5--|---------------------------- 5--|
B|------------ 8-------------- 6--|---------------------------- 3--|
G|------------ 6-------------- 5--|------ 5-------------- 5---- 3--|
D|----10-------------- 5----------|---- 7------ 7------ 4----------|
A|------------------------------ 5|--------------------------------|
E|-------------- 5----------------|---------------- 4--------------|
http://classicalguitartablature.blogspot.com/
E|---- 3------ 3 6-- 8 6 5--------|-------------------- 5------ 0--|
B|---- 3-- 7---- 5------------ 8--| 6------------------ 6-- 6------|
G|---- 3-------- 6----------------| 5------------------ 7-- 7------|
D|--------------------------------|---- 7------ 7---------- 7------|
A|--------------------------------| 5------------------------------|
E| 3------------ 5----------------|-------- 8------ 7------------ 0|
http://classicalguitartablature.blogspot.com/
E|--------------------------------|--------------------------------|
B|------------ 8------------------|-------------------- 4----------|
G|-------- 7-------------- 7------|-------- 6------------------ 4--|
D|---- 8-------------- 8------ 8--|---- 5------ 5---------- 5------|
A|--------------------------------|---------------- 6--------------|
E|---------------- 6------------ 5|--------------------------------|
http://classicalguitartablature.blogspot.com/
E|--------------------------------|--------------------------------|
B|------------ 5------------------|------------ 5---------- 5------|
G|-------- 5-------------- 5------|-------- 4-- 4---------- 4------|
D|---- 3-------------- 3------ 3--|---- 3-------------- 3------ 3--|
A| 5------------------------------| 5------------------------------|
E|---------------- 5--------------|---------------- 5--------------|
http://classicalguitartablature.blogspot.com/
E|--------------------------------|--------------------------------|
B|------------ 5------------------|------------ 5---------- 5------|
G|-------- 5-------------- 5------|-------- 4-- 4---------- 4------|
D|---- 3-------------- 3------ 3--|---- 3-------------- 3------ 3--|
A| 5------------------------------| 5------------------------------|
E|---------------- 5--------------|---------------- 5--------------|
http://classicalguitartablature.blogspot.com/
E|---- 1---------------------- 5--|---- 5------ 3------------------|
B|---- 1---------- 6-- 5-- 6-- 3--|---- 3------ 3------------------|
G|---- 0------ 0-- 5-- 5-- 5-- 3--|------------ 3-------- 3--------|
D|-------- 0------ 3-- 3-- 3------|-------- 3---------- 3------ 3--|
A|---------------- 5--------------|-------------- 3----------------|
E| 1------------------------------| 3------------------------------|
http://classicalguitartablature.blogspot.com/
E|---- 1---------------------- 8--|---- 6---------- 9-- 8----------|
B|---- 1---------- 6-- 5-- 6-- 8--|---------- 6---- 9-- 8----------|
G|---- 0------ 0-- 5-- 5-- 5-- 7--|---------------- 7-- 6----------|
D|-------- 0------ 3-- 3-- 3------|---------------------------- 5--|
A|---------------- 5--------------|--------------------------------|
E| 1------------------------------| 0-------------- 6------ 5------|
http://classicalguitartablature.blogspot.com/
E|--------------------------------|----------------------10----12--|
B| 3---------- 5-- 6------ 8--10--|--------------------11------10--|
G| 5------ 5------ 5---------- 7--|------ 7------------12------10--|
D|---- 3-------------- 7------ 8--|---- 8------ 8------------------|
A| 5------------------------------|---------------- 0--------------|
E|---------------- 5--------------| 0----------------------------10|
http://classicalguitartablature.blogspot.com/
E|------10---- 8-------- 6---- 5--|---------------------------- 5--|
B|------------ 8-------------- 6--|---------------------------- 3--|
G|------------ 6-------------- 5--|------ 5-------------- 5---- 3--|
D|----10-------------- 5----------|---- 7------ 7------ 4----------|
A|------------------------------ 5|--------------------------------|
E|-------------- 5----------------|---------------- 4--------------|
http://classicalguitartablature.blogspot.com/
E|---- 3------ 3 6-- 8 6 5--------|-------------------- 5----------|
B|---- 3-- 7---- 5------------ 8--| 6---------------------- 6------|
G|---- 3-------- 6----------------| 5------ 5------------------ 5--|
D|--------------------------------|---- 7------ 7------------------|
A|--------------------------------| 5------------------------------|
E| 3------------ 5----------------|---------------- 5--------------|
http://classicalguitartablature.blogspot.com/
E|--------------------------------| 5---------- 5------------------|
B|---- 6---------- 6------ 8------| 6------------------------------|
G|---- 7------ 7-- 7--------------| 7------ 7-------------- 7------|
D|---- 8-- 8---------- 8------ 8--|---- 8-------------- 8------ 8--|
A|--------------------------------|--------------------------------|
E| 8-------------- 8--------------| 8-------------- 8--------------|
http://classicalguitartablature.blogspot.com/
E|--------------------------------| 5---------- 5------------------|
B|---- 6---------- 6------ 8------| 6------------------------------|
G|---- 7------ 7-- 7--------------| 7------ 7-------------- 7------|
D|---- 8-- 8---------- 8------ 8--|---- 8-------------- 8------ 8--|
A|--------------------------------|--------------------------------|
E| 8-------------- 8--------------| 8-------------- 8--------------|
http://classicalguitartablature.blogspot.com/
E|--------------------------------| 5------------------------------|
B|---- 6---------- 6------ 8------| 6---------- 8-------------- 6--|
G|---- 7------ 7-- 7--------------| 7------ 7-- 6-------- 6---- 3--|
D|---- 8-- 8---------- 8------ 8--|---- 8------ 5------ 5------ 3--|
A|--------------------------------|--------------------------------|
E| 8-------------- 8--------------| 8-------------- 5------------ 3|
http://classicalguitartablature.blogspot.com/
E|-------------- 3----------------|--------------------------------|
B|-------------- 5------------ 6--|--------------------------------|
G|-------- 3---- 3-------- 3-- 4--|--------------------------------|
D|---- 3------ 3------ 5------ 3--|---- 3--------------------------|
A|-------------- 0----------------| 5------------------------------|
E|--------------------------------|--------------------------------|
http://classicalguitartablature.blogspot.com/

0 ความคิดเห็น:

แสดงความคิดเห็น