To celebrate the anniversary, I am giving you (finally...) : iPhone LickByNeck !!!!!!

Delores (BASIC)

Wayne Shorter's tune fingerstyle chord melody guitar BASIC arrangement played in the key of C.
Delores - Wayne Shorter - BASIC Arrangement played in the key of C.
http://classicalguitartablature.blogspot.com/
E|--------------------------------|--------------------------------|
B| 6-------------- 6--------------|---------------- 6--------------|
G| 5---------- 5------ 5----------|------------ 5------ 5----------|
D|---- 6---------------------- 6--|---- 6---------------------- 6--|
A| 4------------------------------|--------------------------------|
E|--------------------------------| 4------------------------------|
http://classicalguitartablature.blogspot.com/
E|---------------------------- 5 8|--------------------------------|
B| 6------------------ 6 8-- 6----| 9------------ 8------ 6---- 3--|
G|-------- 5----------------------|-------- 9---- 7------------ 3--|
D|---- 7------ 7------------------|---- 8------------ 6------------|
A| 5------------------------------| 9-------------- 7------------ 6|
E|---------------- 5--------------|--------------------------------|
http://classicalguitartablature.blogspot.com/
http://classicalguitartablature.blogspot.com/
E|--------------------1010--------|10-------------------------- 6--|
B|-------------------- 8 8---- 8--| 8--------------13------12-- 9--|
G|------ 3------------ 7-- 7-- 7 9|------------ 9--11---------- 8--|
D|---- 5------ 5------------------|---- 7--------------10----------|
A|--------------------------------| 0------------------------------|
E|-------------- 6----------------|----------------10--------------|
http://classicalguitartablature.blogspot.com/
E|--------------------------------|--------------------------------|
B|-------------------- 6 5------ 4|-------------- 6------ 5---- 4--|
G|-------- 8---------- 7------ 7--|------ 5------ 5------------ 5--|
D|---- 6------ 6------ 6----------|---- 5------ 5---- 4-------- 3--|
A| 8------------------------------|-------------- 5----------------|
E|---------------- 6------------ 5|--------------------------------|
http://classicalguitartablature.blogspot.com/
E|--------------------------------|--------------------------------|
B|--------------------------------|--------------------------------|
G|-------- 5-------------- 5------|-------- 5-------------- 5------|
D|---- 3------ 3------ 3------ 3--|---- 3------ 3------ 3------ 3--|
A| 4------------------------------| 4------------------------------|
E|---------------- 4--------------|---------------- 4--------------|
http://classicalguitartablature.blogspot.com/
E|--------------------------------|--------------------------------|
B| 6------------------------------|---------------------- 6--------|
G|-------- 5-------------- 5------|------ 3-------------- 7--------|
D|---- 3------ 3------ 3------ 3--|---- 2------ 2------ 6------ 6--|
A| 5------------------------------|--------------------------------|
E|---------------- 5------------ 2|---------------- 0--------------|
http://classicalguitartablature.blogspot.com/
E|--------------------------------|--------------------------------|
B| 3------------------------------|--------------------------------|
G| 3---------- 3------ 3----------|---- 5------ 6------ 5----------|
D|---- 5------ 3------ 3----------|---- 5------ 5------ 4------ 4--|
A| 6------ 5------ 3--------------|-------- 6------ 5--------------|
E|------------------------ 6------| 5---------------------- 5------|
http://classicalguitartablature.blogspot.com/
E|--------------------------------|--------------------------------|
B|--------------------------------| 4-------------- 6-- 6------ 6--|
G|---- 8------ 7------ 7------ 7--| 5-- 5------ 6-- 5-- 5------ 5--|
D|---- 6---- 7-------- 6------ 6--| 5-- 5------ 5-- 4-- 4------ 4--|
A| 8------------------------------|-------- 6------ 5--------------|
E|------ 7------ 6------ 6--------| 5---------------------- 4------|
http://classicalguitartablature.blogspot.com/
E|--------------------------------|---------------------- 6------ 5|
B| 1------------------------------|------------------------ 6---- 3|
G| 1---------- 1------ 1----------|-------- 5----------------------|
D|---- 3------ 1------ 1------ 1--|---- 6------ 6------ 6------ 6--|
A| 4------ 3------ 1------------ 4|------------------------------ 3|
E|------------------------ 4------|---------------- 4--------------|
http://classicalguitartablature.blogspot.com/
E|-------------------- 3 5---- 6 8|------10-------------------- 8--|
B|-------------------- 3----------| 8------------13--------11--11--|
G|-------- 3---------- 3-------- 9|--------------11------------10--|
D|---- 3------ 3------------------|---- 7------ 7------10----------|
A|--------------------------------| 0----------------------------10|
E|---------------- 3--------------|----------------10--------------|
http://classicalguitartablature.blogspot.com/
E|--------------------------------|------13--------10--------------|
B|------------11------ 8--10--1113|----------------11------11--10--|
G|------10------------10--10--10--|12--------------11---------- 7--|
D|---- 8-------------- 8-- 8-- 8--|----10------10------10------ 8--|
A|--------------------------------| 0------------------------------|
E|----------------10--------------|----------------10--------------|
http://classicalguitartablature.blogspot.com/
E|--------------------------------|--------------------------------|
B|--------------------------------|-------------- 9-------- 8-- 7 5|
G|-------- 7------------ 7--------|------ 6------ 9-------------- 3|
D|---- 8------ 8------ 8------ 8--|---- 5------ 5------ 8----------|
A|--------------------------------|--------------------------------|
E| 0-------------- 6------------ 5|-------------- 9----------------|
http://classicalguitartablature.blogspot.com/
E|--------------------------------|--------------------------------|
B|--------------------------------|------------ 3---------------- 3|
G|------ 3-------------- 3--------|------ 2-------------- 1--------|
D|---- 5------ 5------ 5------ 5 3|---- 3-------------- 0------ 0--|
A| 3---------------------------- 2|--------------------------------|
E|---------------- 3--------------|-------------- 0----------------|
http://classicalguitartablature.blogspot.com/
E|--------------------------------|--------------------------------|
B|--------------------------------|--------------------------------|
G| 3---------- 3------ 3------ 3--|---- 5---- 6-- 5---- 5------ 5--|
D|---- 5------ 3------ 3------ 3--|---- 5---- 5-- 4---- 4------ 4--|
A| 6------ 5------ 3--------------|-------- 6------ 5--------------|
E|------------------------ 6------| 5---------------------- 5------|
http://classicalguitartablature.blogspot.com/
E|--------------------------------|--------------------------------|
B|--------------------------------| 4-------------- 6-- 6------ 6--|
G|---- 8------ 7------ 7------ 7--| 5-- 5------ 6-- 5-- 5------ 5--|
D|---- 6---- 7-------- 6------ 6--| 5-- 5------ 5-- 4-- 4------ 4--|
A| 8------------------------------|-------- 6------ 5--------------|
E|------ 7------ 6------ 6--------| 5---------------------- 4------|
http://classicalguitartablature.blogspot.com/
E|--------------------------------|--------------------------------|
B| 1------------------------------| 1------------------------------|
G| 1---------- 1------ 1----------| 1---------- 1------ 1----------|
D|---- 3------ 1------ 1------ 1--|---- 3------ 1------ 1------ 1--|
A| 4------ 3------ 1--------------| 4------ 3------ 1--------------|
E|------------------------ 4------|------------------------ 4------|
http://classicalguitartablature.blogspot.com/
E|-------------------- 5----------|--------------------------10----|
B| 6------------------ 6-- 8-- 610|-------------- 8------ 6--11----|
G|-------- 5---------- 5-- 5-- 5--|-------- 9---- 7----------12----|
D|---- 7------ 7---------- 7-- 7--|---- 8------ 8---- 6------------|
A| 5---------------------------- 9|---------------- 7--------------|
E|---------------- 5--------------|------------------------------11|
http://classicalguitartablature.blogspot.com/
E|--------------------1010--------|10-------------------------- 6--|
B|-------------------- 8 8---- 8--| 8--------------13------12-- 9--|
G|------12------------ 7-- 7-- 7 9|------------ 9--11---------- 8--|
D|----12------12------------------|---- 7--------------10----------|
A|--------------------------------| 0------------------------------|
E|-------------- 6----------------|----------------10--------------|
http://classicalguitartablature.blogspot.com/
E|--------------------------------|--------------------------------|
B|-------------------- 6 5------ 4|-------------- 6------ 5---- 4--|
G|-------- 8---------- 7------ 7--|------ 5------ 5------------ 5--|
D|---- 6------ 6------ 6----------|---- 5------ 5---- 4-------- 3--|
A| 8------------------------------|-------------- 5----------------|
E|---------------- 6------------ 5|--------------------------------|
http://classicalguitartablature.blogspot.com/
E|--------------------------------|--------------------------------|
B|--------------------------------|--------------------------------|
G|-------- 5-------------- 5------|-------- 5-------------- 5------|
D|---- 3------ 3------ 3------ 3--|---- 3------ 3------ 3------ 3--|
A| 4------------------------------| 4---------------------------- 4|
E|---------------- 4--------------|---------------- 4--------------|
http://classicalguitartablature.blogspot.com/
E|--------------------------------|--------------------------------|
B| 1------------------------------|--------------------------------|
G| 1------------------------------|--------------------------------|
D| 3------------------------------|--------------------------------|
A|--------------------------------|--------------------------------|
E|--------------------------------|--------------------------------|
http://classicalguitartablature.blogspot.com/

0 ความคิดเห็น:

แสดงความคิดเห็น