To celebrate the anniversary, I am giving you (finally...) : iPhone LickByNeck !!!!!!

Good Bait (Intermediate)

Jazz standards fingerstyle chord melody guitar intermediate arrangement played in the key of C.
Good Bait - INTERMEDIATE ARRANGEMENT played in the key of C
http://classicalguitartablature.blogspot.com/
E|--------------------------------|--------------------------------|
B|------------ 0------------------| 1------ 1-- 0-- 1--------------|
G|------ 2-------------------- 0--| 0------ 0----------------------|
D|---- 3-------------- 3----------|---- 2-------------- 2------ 2--|
A|--------------------------------| 3------ 2------ 0--------------|
E| 3-------------- 3--------------|------------------------ 3------|
http://classicalguitartablature.blogspot.com/
E|---------------------- 4---- 6 3|------ 3---- 2 3----------------|
B|---- 0-- 1-- 3 4---- 6 4------ 3|------ 3------ 1----------------|
G|---- 2-- 0---- 4------ 4------ 2|------ 2------ 0----------------|
D|---- 0-- 2---- 4----------------|---- 2-------------- 2------ 2--|
A|---------------- 6---- 4------ 3|-------- 2---- 0----------------|
E| 1------ 0----------------------|---------------------- 3--------|
http://classicalguitartablature.blogspot.com/
http://classicalguitartablature.blogspot.com/
E|---- 0---------------- 3---- 1--| 0------ 0---------- 5 3--------|
B|---- 3-- 3-- 1------ 3 4--------| 1------ 0-- 3-- 5-- 4-- 3-- 5 1|
G|---- 2-- 0------ 4---- 4--------| 0------ 0------ 6-- 5-- 3-- 3 2|
D|-------- 2------ 3--------------|---- 2---------- 5---------- 2 3|
A|---------------- 5------ 4------| 3------ 2----------------------|
E| 1------ 0----------------------|---------------- 6-- 5-- 3-- 2--|
http://classicalguitartablature.blogspot.com/
E|------------------------ 3-- 1--| 0------------------------------|
B|------ 1---- 0------ 5-- 3------| 0-- 0------ 4-- 3--------------|
G|------ 0------ 5-------- 1------| 0-- 0-- 3------ 2-- 2------ 6--|
D|---- 3---------- 6--------------|---- 0-- 4------ 3-- 3-- 6------|
A|---------------- 5------ 3------| 2------ 4------ 5------ 6------|
E| 1------ 0----------------------|--------------------------------|
http://classicalguitartablature.blogspot.com/
E|--------------------------------|--------------------------------|
B|--------------------------------| 1------ 1-- 0-- 1--------------|
G| 5------------------------------| 0------ 0----------------------|
D|---- 5------ 5------ 3------ 5--|---- 2-------------- 2------ 2--|
A| 7------ 6------ 5------ 4------| 3------ 2------ 0--------------|
E|--------------------------------|------------------------ 3------|
http://classicalguitartablature.blogspot.com/
E|---------------------- 4---- 6 3|------ 3---- 2 3----------------|
B|---- 0-- 1-- 3 4---- 6 4------ 3|------ 3------ 1----------------|
G|---- 2-- 0---- 4------ 4------ 2|------ 2------ 0----------------|
D|---- 0-- 2---- 4----------------|---- 2-------------- 2------ 2--|
A|---------------- 6---- 4------ 3|-------- 2---- 0----------------|
E| 1------ 0----------------------|---------------------- 3--------|
http://classicalguitartablature.blogspot.com/
E|---- 0---------------- 3---- 1--| 0------ 0---------- 5 3--------|
B|---- 3-- 3-- 1------ 3 4--------| 1------ 0-- 3-- 5-- 4-- 3-- 5 1|
G|---- 2-- 0------ 4---- 4--------| 0------ 0------ 6-- 5-- 3-- 3 2|
D|-------- 2------ 3--------------|---- 2---------- 5---------- 2 3|
A|---------------- 5------ 4------| 3------ 2----------------------|
E| 1------ 0----------------------|---------------- 6-- 5-- 3-- 2--|
http://classicalguitartablature.blogspot.com/
E|------------------------ 3-- 1--| 0------------------------------|
B|------ 1---- 0------ 5-- 3------| 0-- 0------ 4-- 3--------------|
G|------ 0------ 5-------- 1------| 0-- 0-- 3------ 2-- 2------ 6--|
D|---- 3---------- 6--------------|---- 0-- 4------ 3-- 3-- 6------|
A|---------------- 5------ 3------| 2------ 4------ 5------ 6------|
E| 1------ 0----------------------|--------------------------------|
http://classicalguitartablature.blogspot.com/
E|------------------------------ 1|-------- 1-- 0------------------|
B|---------------- 1---------- 1--| 1------ 1------ 6--------------|
G| 5-------------- 1---------- 3--| 2-- 2---------- 5--------------|
D|---- 5------ 5------ 0------ 2--|-------------------- 7------ 7--|
A| 7------ 6----------------------|---------------- 5--------------|
E|---------------- 0------ 2------| 1------ 0-------------- 8------|
http://classicalguitartablature.blogspot.com/
E|-------------- 4---- 6-- 9--11--| 8------ 8-- 7-- 8--------------|
B|---- 5 6---- 8 5-------- 9------| 8------ 8------10--------------|
G|---- 7 5------ 6-------- 9------| 7------ 7----------10------10--|
D|---- 5 7------------------------|---- 7--------------------------|
A|------------------------ 9------| 8------ 7----------------------|
E| 6---- 5------ 4----------------|----------------10------ 8------|
http://classicalguitartablature.blogspot.com/
E|---- 5-------------- 3-- 8-- 6--| 5------ 5----------10-- 8------|
B|---- 8 8---- 6 5-------- 9------| 6------ 5-- 8--10-- 9-- 8--10--|
G|---- 7-- 5-- 5 3----------------| 5------ 5------11--10-- 8-- 8--|
D|------ 7------ 5----------------|---- 7 5--------10---------- 7--|
A|------------------------ 9------| 8------ 7----------------------|
E| 6---- 5-------- 3--------------|----------------11--10-- 8-- 7--|
http://classicalguitartablature.blogspot.com/
E|-------------------- 5-- 8-- 6--| 5---------- 4-- 3--------------|
B| 6------ 6-- 5 6-------- 8------| 5-- 5-- 4------ 3-- 3------ 7--|
G| 5------ 5---- 6-------- 6------| 5-- 5-- 4------ 3-- 3-- 6------|
D|---- 5-- 5----------------------|---- 5-- 4-------------- 6------|
A|------------------------ 8------|--------------------------------|
E| 6------ 5---- 3----------------| 0------ 2------ 3------ 4------|
http://classicalguitartablature.blogspot.com/
E|--------------------------------|--------------------------------|
B| 6------------------------------| 1------ 1-- 0-- 1--------------|
G| 5------------------ 7------ 0--| 0------ 0----------------------|
D|---- 5------ 5------ 5------ 3--|---- 2-------------- 2------ 2--|
A|---------------------- 4--------| 3------ 2------ 0--------------|
E| 5------ 6------ 7--------------|------------------------ 3------|
http://classicalguitartablature.blogspot.com/
E|---------------------- 4---- 6 3|------ 3---- 2 3----------------|
B|---- 0-- 1-- 3 4---- 6 4------ 3|------ 3------ 1----------------|
G|---- 2-- 0---- 4------ 4------ 2|------ 2------ 0----------------|
D|---- 0-- 2---- 4----------------|---- 2-------------- 2------ 2--|
A|---------------- 6---- 4------ 3|-------- 2---- 0----------------|
E| 1------ 0----------------------|---------------------- 3--------|
http://classicalguitartablature.blogspot.com/
E|---- 0---------------- 3---- 1--| 0------ 0---------- 5 3--------|
B|---- 3-- 3-- 1------ 3 4--------| 1------ 0-- 3-- 5-- 4-- 3-- 5 1|
G|---- 2-- 0------ 4---- 4--------| 0------ 0------ 6-- 5-- 3-- 3 2|
D|-------- 2------ 3--------------|---- 2---------- 5---------- 2 3|
A|---------------- 5------ 4------| 3------ 2----------------------|
E| 1------ 0----------------------|---------------- 6-- 5-- 3-- 2--|
http://classicalguitartablature.blogspot.com/
E|------------------------ 3-- 1--| 0------------------------------|
B|------ 1---- 0------ 5-- 3------| 0-- 0------ 4-- 3--------------|
G|------ 0------ 5-------- 1------| 0-- 0-- 3------ 2-- 2------ 6--|
D|---- 3---------- 6--------------|---- 0-- 4------ 3-- 3-- 6------|
A|---------------- 5------ 3------| 2------ 4------ 5------ 6------|
E| 1------ 0----------------------|--------------------------------|
http://classicalguitartablature.blogspot.com/
E|--------------------------------| 0------------------------------|
B| 1------------------------------| 0-- 0------ 4-- 3--------------|
G| 0------ 2-- 2------ 5------ 6--| 0-- 0-- 3------ 2-- 2------ 6--|
D|---- 2------ 2------ 3------ 5--|---- 0-- 4------ 3-- 3-- 6------|
A|--------------------------------| 2------ 4------ 5------ 6------|
E| 0------ 2------ 4------ 6------|--------------------------------|
http://classicalguitartablature.blogspot.com/
E|--------------------------------| 0------------------------------|
B| 1------------------------------| 0-- 0------ 4-- 3--------------|
G| 0------ 2-- 2------ 5------ 6--| 0-- 0-- 3------ 2-- 2------ 6--|
D|---- 2------ 2------ 3------ 5--|---- 0-- 4------ 3-- 3-- 6------|
A|--------------------------------| 2------ 4------ 5------ 6------|
E| 0------ 2------ 4------ 6------|--------------------------------|
http://classicalguitartablature.blogspot.com/
E|--------------------------------|--------------------------------|
B|--------------------------------|--------------------------------|
G| 5------------------------------|--------------------------------|
D| 5------------------------------|--------------------------------|
A| 7-------------- 5--------------|--------------------------------|
E|--------------------------------| 8------------------------------|
http://classicalguitartablature.blogspot.com/

0 ความคิดเห็น:

แสดงความคิดเห็น