To celebrate the anniversary, I am giving you (finally...) : iPhone LickByNeck !!!!!!

Luiza (Basic)

A beutiful Antonio Carlos Jobim's tune fingerstyle chord melody guitar basic arrangement played in the key of Eb.
Luiza - BASIC ARRANGEMENT played in the key of Eb.
http://classicalguitartablature.blogspot.com/
E|------------------------|------------------------|
B|---- 8------------------|-- 7------ 6-------- 5--|
G|------------------------|------------------------|
D| 5------------------ 6--|------ 7-------- 8------|
A|------------------------|------------------------|
E|------------------------|------------------------|
http://classicalguitartablature.blogspot.com/
E|------------------------|------------------------|
B|------------------------| 4----------------------|
G|-------------- 4--------| 4----------------------|
D|---------------------- 3|------------------------|
A|------------------------|------------------------|
E|---------------------- 3|------------------------|
http://classicalguitartablature.blogspot.com/
http://classicalguitartablature.blogspot.com/
E|---------------------- 1|-------------- 1---- 3--|
B| 6---------- 4-------- 4|------------ 4 4--------|
G|------ 4-- 3-------- 3 2|------ 2------ 2------ 1|
D|---- 5---------- 5------|---- 1------------------|
A| 3-------------- 3------|------------------------|
E|---------------------- 1|-------------- 1------ 1|
http://classicalguitartablature.blogspot.com/
E| 3-- 1-------- 1---- 0--|------------------------|
B| 1----------------------| 4-- 3-- 2-- 3-- 4-- 3--|
G|------------ 1----------| 4-------- 4---- 4------|
D|------ 3-------------- 3|---------------- 3------|
A|------------------------|------------------------|
E|---------------------- 3|---------------- 3------|
http://classicalguitartablature.blogspot.com/
E|---------------------- 1|-------------- 1---- 3--|
B| 6---------- 4-------- 4|------------ 4 4------ 1|
G|------ 4-- 3-------- 3 2|------ 2------ 2------ 1|
D|---- 5---------- 5------|---- 1------------------|
A| 3-------------- 3------|------------------------|
E|---------------------- 1|-------------- 1------ 1|
http://classicalguitartablature.blogspot.com/
E| 3-- 1 0---- 1 3---- 4--|------------------------|
B|-------------- 6--------| 9-- 8-- 7-- 8-- 9-- 811|
G|-------------- 5--------| 9-------------------- 8|
D|---------------------- 8|-------------- 8--------|
A|------------------------|------------------------|
E|-------------- 4------ 8|------------------------|
http://classicalguitartablature.blogspot.com/
E|---------------------- 6|------------ 4 3--------|
B|------------ 9-------- 3|------ 3---- 4 3---- 3--|
G|------ 8------------ 8--|---- 5---------- 5------|
D|----10----------10------|------------------------|
A| 8-------------- 8------|------------------------|
E|------------------------| 6----------------------|
http://classicalguitartablature.blogspot.com/
E| 3----------------------|------------------------|
B| 3----------------------|-------- 8-- 7 8-- 9----|
G| 3------ 4-- 6 5-- 4----|---- 7------------------|
D|---- 5---------------- 8|---------------------- 6|
A| 6-------------------- 6|---------------------- 5|
E|------------------------|------------------------|
http://classicalguitartablature.blogspot.com/
E|------------------------|------------ 4-- 710----|
B| 8-- 6-------- 6-- 5----| 4-- 3-- 6------ 9------|
G| 5-------- 5------------| 4------ 4---- 7--------|
D|-------- 6------------ 3|-------- 6--------------|
A|------------------------|------------------------|
E|---------------------- 3|------ 4------ 7------ 8|
http://classicalguitartablature.blogspot.com/
E|10---------- 8----------|-------------- 7-- 6----|
B| 8-- 8-------- 8------ 2|-- 1-- 0-- 1----------11|
G| 7------ 7-------- 9-- 3|---------------------- 8|
D|---------------------- 2|------------------------|
A|---------------------- 3|------------------------|
E|------------------------|------------------------|
http://classicalguitartablature.blogspot.com/
E|---------------------- 6|------------ 4 3--------|
B|------------ 9-------- 3|------ 3---- 4 3---- 3--|
G|------ 8------------ 8--|---- 5---------- 5------|
D|----10----------10------|------------------------|
A| 8-------------- 8------|------------------------|
E|------------------------| 6----------------------|
http://classicalguitartablature.blogspot.com/
E| 4---------- 3----------|------------------------|
B| 3-------------------- 9|------------ 8----------|
G| 3------ 3---- 3---- 5--| 8---- 8------------ 8--|
D|---- 5------------------|---- 8---------- 8------|
A| 6------------ 6--------|------------------------|
E|------------------------| 8-------------- 8------|
http://classicalguitartablature.blogspot.com/
E|------------------------|---------------- 7------|
B| 4---------- 3------ 3--|---- 3-- 4-- 7------10--|
G| 5---- 5------ 6--------| 6------------ 8--------|
D| 4---- 4------ 4--------|---- 4------------------|
A| 5------------ 5--------| 5------------ 9--------|
E|------------------------|------------------------|
http://classicalguitartablature.blogspot.com/
E| 8---------- 7 5-- 8-- 7|------------------------|
B| 6------ 6--------------|------------ 8----------|
G| 7-- 7------------------|-------- 8-------- 8----|
D|------------------------|---- 9---------------- 9|
A| 5----------------------|------------------------|
E|---------------------- 9|------------------------|
http://classicalguitartablature.blogspot.com/
E|------------------------|------------------------|
B|---------------------- 8|-------------- 7--------|
G|------------------------|------------------------|
D|------------------------|------ 5----------------|
A|------------------------|------------------------|
E|------------------------|------------------------|
http://classicalguitartablature.blogspot.com/
E|---------------------- 1|-------------- 1---- 3--|
B| 6---------- 4-------- 4|------------ 4 4--------|
G|------ 4-- 3-------- 3 2|------ 2------ 2------ 1|
D|---- 5---------- 5------|---- 1------------------|
A| 3-------------- 3------|------------------------|
E|---------------------- 1|-------------- 1------ 1|
http://classicalguitartablature.blogspot.com/
E| 3-- 1-------- 1---- 0--|------------------------|
B| 1----------------------| 4-- 3-- 2-- 3-- 4-- 3--|
G|------------ 1----------| 4-------- 4---- 4------|
D|------ 3-------------- 3|---------------- 3------|
A|------------------------|------------------------|
E|---------------------- 3|---------------- 3------|
http://classicalguitartablature.blogspot.com/
E|---------------------- 1|-------------- 1---- 3--|
B| 6---------- 4-------- 4|------------ 4 4------ 1|
G|------ 4-- 3-------- 3 2|------ 2------ 2------ 1|
D|---- 5---------- 5------|---- 1------------------|
A| 3-------------- 3------|------------------------|
E|---------------------- 1|-------------- 1------ 1|
http://classicalguitartablature.blogspot.com/
E| 3-- 1 0---- 1 3---- 4--|------------------------|
B|-------------- 6--------| 9-- 8-- 7-- 8-- 9-- 811|
G|-------------- 5--------| 9-------------------- 8|
D|---------------------- 8|-------------- 8--------|
A|------------------------|------------------------|
E|-------------- 4------ 8|------------------------|
http://classicalguitartablature.blogspot.com/
E|------------------------| 6------------ 6-- 8----|
B|------------ 9----------| 6---------- 9----------|
G|------ 8------------ 8--| 7---- 7-------------- 6|
D|----10----------10------|---- 6------------------|
A| 8-------------- 8------|---------------------- 6|
E|------------------------| 6----------------------|
http://classicalguitartablature.blogspot.com/
E| 8-- 6-- 6--------------|-------------------- 6--|
B| 6---------- 9-- 9 8----| 8-- 6-- 6-- 5-- 5------|
G|------------------------| 6------ 6-- 6-- 6---- 5|
D|---------------------- 8|-------- 5-- 5-- 5------|
A|---------------------- 6|-------- 6--------------|
E|------------------------|---------------------- 4|
http://classicalguitartablature.blogspot.com/
E| 6-- 4-- 4-- 3----------| 1-- 0-- 0-- 1 3-- 4----|
B| 4-------------- 8-- 6--| 1------------ 1--------|
G|---------------- 8------| 1------------ 1------ 5|
D|-------------- 6--------|------------------------|
A|------------------------|---------------------- 5|
E|-------------- 8------ 1|---------------- 1------|
http://classicalguitartablature.blogspot.com/
E| 4----------------------|------------------------|
B| 6-- 7------ 3-- 6-- 5--| 4-- 3-- 2-- 3-- 6-- 4--|
G|-------- 5------ 5------| 4------------ 4--------|
D|-------------- 6------ 3|-------------- 3--------|
A|-------------- 5--------|------------------------|
E|---------------------- 3|-------------- 3--------|
http://classicalguitartablature.blogspot.com/
E|-------------------- 410|-- 8-- 4----------------|
B|------------ 3 4--------|------------ 4-- 3-- 1--|
G| 5---- 5--------------10|-- 8---- 5------ 1------|
D|---- 6------------------|------------ 5-- 1------|
A|------------------------|------------------------|
E| 4----------------------|-------------- 4--------|
http://classicalguitartablature.blogspot.com/
E|------ 1-------------- 3|---- 1------------------|
B|-------------------- 1 1|------ 1----------------|
G| 3---------- 1-- 3------|---------- 1-- 0--------|
D| 1----------------------|------------------ 3-- 1|
A|------------------------|------------------------|
E| 1-------------------- 1|---------------- 1---- 1|
http://classicalguitartablature.blogspot.com/
E|------------------------|------------------------|
B| 4-- 1------------------|------------------------|
G| 1------ 3-- 1-- 0------| 3-- 1-- 0-- 1---- 3----|
D|-------------------- 3 1|------------------ 3----|
A|---------------- 3------|------------------------|
E|---------------------- 4|---------------- 3------|
http://classicalguitartablature.blogspot.com/
E|------------------------|------------------------|
B|------------------------|------------------------|
G|------------------------| 4---------------- 4----|
D|------------------------| 3---------------- 3----|
A|------------------------| 2-------------- 4------|
E|------------------------|------------------------|
http://classicalguitartablature.blogspot.com/
E|------------------------|------------------------|
B|------------------------| 1----------------------|
G|------------------------| 2----------------------|
D|---------------------- 2|------------------------|
A|---------------------- 3|------------------------|
E|------------------------|------------------------|
http://classicalguitartablature.blogspot.com/

0 ความคิดเห็น:

แสดงความคิดเห็น