To celebrate the anniversary, I am giving you (finally...) : iPhone LickByNeck !!!!!!

Shiny Stockings (Intermediate)

Ella Fitzgerald's tune fingerstyle chord melody guitar intermediate arrangement played in the key of F.
Shiny Stockings - INTERMEDIATE ARRANGEMENT played in the key of F
http://classicalguitartablature.blogspot.com/
E|13------10----------------------|---------------- 5-- 5------ 1--|
B|11------11------13--11------10 6|---------------- 3-- 3------ 1--|
G|10--10----------10--10----------|-------- 3------ 3---------- 0--|
D|------------12--12--12--12------|---- 3------ 3-------- 3--------|
A|10------------------------------|---------------- 3--------------|
E|----------------10--------------| 3------------------------------|
http://classicalguitartablature.blogspot.com/
E|--------------------------------|-------------------- 4----------|
B|------------ 1-------------- 8--|---- 4-- 6-- 4------ 5----------|
G|-------- 0-------------- 7------|---- 5-- 5-- 5------ 5------ 5--|
D|---- 0-------------- 6----------|---- 5-- 5-- 5-------- 4--------|
A|--------------------------------|--------------------------------|
E| 1-------------- 6--------------| 5-------------- 4--------------|
http://classicalguitartablature.blogspot.com/
http://classicalguitartablature.blogspot.com/
E| 5-------------- 3-- 5------ 8--|---- 5-------- 3-------- 5------|
B| 3---------- 4-- 3-- 3------ 6--|---- 5-------- 3-------- 5------|
G| 3---------- 2-- 3-- 3------ 7--|---- 3------ 3 3-------- 5------|
D|---- 3------ 4------------------|-------------------- 3------ 5--|
A|--------------------------------| 5------ 4---- 3----------------|
E| 3------ 2------ 1------ 0------|------------------------ 6------|
http://classicalguitartablature.blogspot.com/
E|-------- 3------ 5-- 3------ 5--|-------------------- 2----------|
B| 3------ 6------ 3-- 3------ 8--|-------------------- 5-------- 8|
G| 5------ 5------ 3-- 3------ 5--|-------------- 3---- 3------ 3 7|
D|---- 4------ 3------------------|---- 8------ 8 3-------------- 7|
A|------------------------------ 7|------ 6-------- 5------ 4------|
E| 5------ 4------ 3------ 1------|------------------------------ 8|
http://classicalguitartablature.blogspot.com/
E|-------------------- 3------ 8--|--------------------------------|
B|---------------- 6-- 5------ 9--|---- 8-------- 6------ 8--------|
G|---------------- 5-- 3------ 8--|---- 6-------- 5------ 5------ 2|
D|---- 7------ 7-- 5--------------|---- 8------ 8------ 6 6---- 6--|
A|--------------------------------| 8------ 7---- 6-------- 5---- 3|
E|-------- 7------ 5------ 3------|--------------------------------|
http://classicalguitartablature.blogspot.com/
E|------ 1-------------------- 3--|-------------------- 2----------|
B| 1------ 3---- 8---- 6------ 3--|-------------------- 1----------|
G|-------- 2---- 6---- 6------ 4--|---- 4-------- 1---- 1----------|
D|---- 2------ 3 8---- 5----------|-- 3-------- 3 0------------ 0--|
A|-------- 2----------------------|--------------------------------|
E|---------------- 6------ 5---- 4|------ 3------ 1-------- 0------|
http://classicalguitartablature.blogspot.com/
E|------------------------ 5-- 8--|-------------------- 4-------- 4|
B| 6-------------- 3-- 6-- 6-- 5--|---- 5-------------- 3-------- 1|
G| 3-------------- 3------ 7-- 5--|---- 5-------------- 3-------- 2|
D| 3-- 3------ 3-- 3--------------|---- 5------ 5-------------- 3--|
A| 5------ 4------ 3--------------|--------------------------------|
E|------------------------ 7------| 6------ 5------ 4------ 3------|
http://classicalguitartablature.blogspot.com/
E|---------------------- 7----10--|---------------------- 6---- 5--|
B|-------------------- 8-- 8-- 7--|------------------------ 4-- 4--|
G|---------------- 9------ 9-- 7--|-------------------- 5-- 5-- 5--|
D|---- 2------ 2--10--------------|---- 7------ 7------ 4----------|
A|--------------------------------|--------------------------------|
E| 2------ 0------10------ 9------| 8------ 7------ 5------ 4---- 2|
http://classicalguitartablature.blogspot.com/
E|------------------------ 9--12--|-------------------- 9-------- 5|
B|--------------------10-- 9--12--|-------------------- 9-------- 5|
G|---- 2----------11------ 9--12--|----12------12-- 7-- 7-------- 6|
D|---- 0------ 0--12--------------|---------------- 6---------- 6--|
A|--------------------------------|------------------------------ 0|
E|-------- 1------ 0------10------| 9------ 8------ 7------ 6------|
http://classicalguitartablature.blogspot.com/
E|----------------------------11--|----1110------ 8----------------|
B|----------------------------10--|----1013------ 7----------------|
G|-------------- 8-------- 9--11--|----1112------ 8---- 8----------|
D|---- 6------ 6------ 7-- 7------|------------10------10------10--|
A|--------------------------------|-------------- 8-------- 9------|
E|-------- 7------ 8------ 9------|10----11------------------------|
http://classicalguitartablature.blogspot.com/
E| 5-------------- 3-- 5------ 8--|---- 5-------- 3-------- 5------|
B| 3---------- 4-- 3-- 3------ 6--|---- 5-------- 3-------- 5------|
G| 3---------- 2-- 3-- 3------ 7--|---- 3------ 3 3-------- 5------|
D|---- 3------ 4------------------|-------------------- 3------ 5--|
A|--------------------------------| 5------ 4---- 3----------------|
E| 3------ 2------ 1------ 0------|------------------------ 6------|
http://classicalguitartablature.blogspot.com/
E|-------- 3------ 5-- 3------ 5--|-------------------- 2----------|
B| 3------ 6------ 3-- 3------ 8--|-------------------- 5-------- 8|
G| 5------ 5------ 3-- 3------ 5--|-------------- 3---- 3------ 3 7|
D|---- 4------ 3------------------|---- 8------ 8 3-------------- 7|
A|------------------------------ 7|------ 6-------- 5------ 4------|
E| 5------ 4------ 3------ 1------|------------------------------ 8|
http://classicalguitartablature.blogspot.com/
E|-------------------- 3------ 8--|--------------------------------|
B|---------------- 6-- 5------ 9--|---- 8-------- 6------ 8--------|
G|---------------- 5-- 3------ 8--|---- 6-------- 5------ 5------ 2|
D|---- 7------ 7-- 5--------------|---- 8------ 8------ 6 6---- 6--|
A|--------------------------------| 8------ 7---- 6-------- 5---- 3|
E|-------- 7------ 5------ 3------|--------------------------------|
http://classicalguitartablature.blogspot.com/
E|------ 1-------------------- 3--|-------------------- 2----------|
B| 1------ 3---- 8---- 6------ 3--|-------------------- 1----------|
G|-------- 2---- 6---- 6------ 4--|---- 4-------- 1---- 1----------|
D|---- 2------ 3 8---- 5----------|-- 3-------- 3 0------------ 0--|
A|-------- 2----------------------|--------------------------------|
E|---------------- 6------ 5---- 4|------ 3------ 1-------- 0------|
http://classicalguitartablature.blogspot.com/
E|------------------------ 5-- 8--|-------------------- 4-------- 4|
B| 6-------------- 3-- 6-- 6-- 5--|---- 5-------------- 3-------- 1|
G| 3-------------- 3------ 7-- 5--|---- 5-------------- 3-------- 2|
D| 3-- 3------ 3-- 3--------------|---- 5------ 5-------------- 3--|
A| 5------ 4------ 3--------------|--------------------------------|
E|------------------------ 7------| 6------ 5------ 4------ 3------|
http://classicalguitartablature.blogspot.com/
E|---------------------- 7----10--|--------------------12--------13|
B|-------------------- 8-- 8-- 7--|--------------------10--------11|
G|---------------- 9------ 9-- 7--|----------------11------------10|
D|---- 2------ 2--10--------------|---- 7------ 7--10----------10--|
A|--------------------------------|---------------- 0------11------|
E| 2------ 0------10------ 9------| 8------ 7----------------------|
http://classicalguitartablature.blogspot.com/
E|--------10------ 8-- 6----------|-------------------- 5----------|
B|--------13------ 8-- 6------10--|---- 6--------10---- 5------ 6--|
G|--------11--11-- 7-- 7------10--|---- 6-------- 9---- 5------ 5--|
D|----12---------------------- 8--|---- 5------ 5 8------------ 3--|
A|10------ 0-------------------- 6|------ 4------------------------|
E|---------------- 6------ 8--10--|-------------- 8------ 6--------|
http://classicalguitartablature.blogspot.com/
E|--------------------------------|--------------------------------|
B|--------------------------------|--------------------------------|
G|------------ 5-------------- 5--|------------ 3-------------- 3--|
D|---- 3-------------- 4----------|---- 3-------------- 2----------|
A|--------------------------------|--------------------------------|
E| 5-------------- 4------------ 3|---------------- 2--------------|
http://classicalguitartablature.blogspot.com/
E|--------------------------------|--------------------------------|
B|--------------------------------|--------------------------------|
G|-- 2----------------------------|--------------------------------|
D| 0------------------------------|--------------------------------|
A|--------------------------------|--------------------------------|
E| 1------------------------------|--------------------------------|
http://classicalguitartablature.blogspot.com/

0 ความคิดเห็น:

แสดงความคิดเห็น