To celebrate the anniversary, I am giving you (finally...) : iPhone LickByNeck !!!!!!

All Of Me (Intermediate)

Jazz tune fingerstyle chord melody guitar intermediate arrangement played in the key of A.
All Of Me Intermediate Arrangement played in the key of A.
http://classicalguitartablature.blogspot.com/
E|------ 7-------- 9--------------| 9-- 7---------------------- 5--|
B|------ 7--------10----10--------|10-- 9---------------------- 7--|
G|---- 7 6--------11------ 9------| 9-- 7---------- 6---------- 5--|
D|---- 9------ 7------11------ 9--|-------------- 9---- 5----------|
A| 8---- 6------------------------|--------------------------------|
E|----------------10------ 9------| 8------ 7------ 6------ 5------|
http://classicalguitartablature.blogspot.com/
E| 4---------------------- 0------|------------------------ 2------|
B| 5-------------- 2------ 1------| 9---------------------- 5------|
G| 4---------- 4-- 2------ 2------| 6------------------ 4-- 3------|
D|---- 6------ 3------ 1------ 2--|---- 8------ 7------ 4------ 2--|
A|--------------------------------|-------- 6------ 5------ 4------|
E| 4------ 3------ 2------ 1------| 0------------------------------|
http://classicalguitartablature.blogspot.com/
http://classicalguitartablature.blogspot.com/
E| 5-- 7--------------------------|---------------- 9--------------|
B| 3-- 7--------------------------|---------------- 7------ 5------|
G| 3-- 7------ 7------ 6------ 4--|---- 4------ 4-- 7------ 5------|
D|------------ 7------ 5------ 4--|---- 4------ 2------ 7------ 7--|
A| 3------------------------------|---------------- 9------ 8------|
E|-------- 7------ 6------ 5------| 4------ 3----------------------|
http://classicalguitartablature.blogspot.com/
E| 5------------------------------|------------------------------ 5|
B| 5---------- 7-- 6---------- 5--|---------------------------- 5 5|
G|---- 6------ 6-- 4---------- 4--| 2---------- 2-- 7---------- 5 4|
D|-------------------- 7------ 4--|---- 1------ 0------ 6------ 4--|
A| 7------ 6------ 5------ 4------| 3------ 2----------------------|
E|--------------------------------|---------------- 6------ 4------|
http://classicalguitartablature.blogspot.com/
E|--------------------------------|---------------- 5-- 7 5------ 4|
B|------ 5---- 2------------------|---------------- 7------ 4---- 6|
G|------ 4---- 2------------------| 2---------- 2-- 6------ 5------|
D|---- 4 4---- 3------ 3------ 2--|---- 0------ 2-------------- 4--|
A|--------------------------------|---------------- 6------ 5------|
E| 5------ 4------ 3------ 2------| 1------ 0----------------------|
http://classicalguitartablature.blogspot.com/
E|--------------------------------|--------------------------------|
B|------------------------ 6------| 2------------------------------|
G| 4-------------- 6------ 4------| 4---------- 1------ 1------ 6--|
D|---- 6------ 6------ 4------ 6--|---- 3------ 0------ 0------ 7--|
A| 4------------------------------|------------------------ 6------|
E|-------- 7------ 5------ 4------| 3------ 2------ 1--------------|
http://classicalguitartablature.blogspot.com/
E| 2------------------------------|---------------- 2---- 3-- 2-- 0|
B| 2------ 5-- 2------------------|---------------- 5---- 2-- 2-- 3|
G| 3------ 3-- 1------------------|-------- 4------ 4---- 3-- 0-- 4|
D|---- 2-- 5-- 2------ 2------ 2--|---- 2------ 2------------------|
A| 4------ 3------ 2------ 1------| 0---------------------------- 5|
E|--------------------------------|-------- 4------ 3---- 2-- 0----|
http://classicalguitartablature.blogspot.com/
E|--------------------------------|--------------------------------|
B|------------------------------ 3|--------------------------------|
G|------------ 3-- 2---------- 0 4|---------------- 4---------- 2--|
D|---- 4------ 2------ 0------ 2--|---- 4------ 4------ 2------ 0--|
A|-------- 4------ 2------ 1------|--------------------------------|
E|------------------------------ 5|------ 4-------- 3------ 2------|
http://classicalguitartablature.blogspot.com/
E|-------- 7------ 7------ 7------| 7-------------- 7-- 9---- 7----|
B|-------- 7------ 7------ 6------| 9-------------- 7--10---- 9----|
G| 1------ 6------ 4------ 4------| 7---------- 6-- 7--10---- 7----|
D|---- 3------ 7------ 6------ 6--|---- 9------ 4------------------|
A|-------- 6------ 5------ 4------|--------------------10---- 8----|
E| 1------------------------------| 7------ 5------ 4--------------|
http://classicalguitartablature.blogspot.com/
E|--------------------------------|--------------------------------|
B|12--10--------------------------|--------------------------------|
G| 9-- 7------ 7 9---- 9------ 6--|---- 2------ 3------ 1------ 0--|
D|11-- 9------ 9------ 7------ 7--|---- 2------ 2------ 2------ 2--|
A| 9------ 8---- 7------ 6--------| 4------ 3------ 2------ 1------|
E|--------------------------------|--------------------------------|
http://classicalguitartablature.blogspot.com/
E| 7------ 7------ 4--------------|-------- 7------ 4--------------|
B| 9------ 7------ 2--------------|-------- 8------ 7--12------ 9--|
G| 8------ 5------ 4--------------|---- 8-- 8------ 4-- 9------ 9--|
D|---- 7------ 7------ 2------ 2--|---- 7------ 7------ 9------ 8--|
A|--------------------------------| 9------ 8------ 6--------------|
E| 7------ 5------ 4------ 3------|---------------------- 9---- 8--|
http://classicalguitartablature.blogspot.com/
E|--------------------------------|------------------------------ 5|
B| 7------------------------------| 5---------------------------- 5|
G| 7---------- 7------ 4----------| 4---------- 3-- 2---------- 4 4|
D|---- 7------ 5------ 4------ 4--|---- 3------ 2------ 3------ 3--|
A|--------------------------------|--------------------------------|
E| 7------ 6------ 5------ 4------| 3------ 2------ 3------ 4------|
http://classicalguitartablature.blogspot.com/
E|--------------------------------|---------------- 5-- 7 5------ 4|
B|------ 5---- 2------------------|---------------- 7------ 4---- 6|
G|------ 4---- 2------------------| 2---------- 2-- 6------ 5------|
D|---- 4 4---- 3------ 3------ 2--|---- 0------ 2-------------- 4--|
A|--------------------------------|---------------- 6------ 5------|
E| 5------ 4------ 3------ 2------| 1------ 0----------------------|
http://classicalguitartablature.blogspot.com/
E|--------------------------------|--------------------------------|
B|------------------------ 6------| 2------------------------------|
G| 4-------------- 6------ 4------| 4---------- 1------ 1------ 6--|
D|---- 6------ 6------ 4------ 6--|---- 3------ 0------ 0------ 7--|
A| 4------------------------------|------------------------ 6------|
E|-------- 7------ 5------ 4------| 3------ 2------ 1--------------|
http://classicalguitartablature.blogspot.com/
E| 2------------------------------|---------------- 2---- 3-- 2-- 0|
B| 2------ 5-- 2------------------|---------------- 5---- 2-- 2-- 3|
G| 3------ 3-- 1------------------|-------- 4------ 4---- 3-- 0-- 4|
D|---- 2-- 5-- 2------ 2------ 2--|---- 2------ 2------------------|
A| 4------ 3------ 2------ 1------| 0---------------------------- 5|
E|--------------------------------|-------- 4------ 3---- 2-- 0----|
http://classicalguitartablature.blogspot.com/
E|--------------------------------|--------------------------------|
B|------------------------------ 3|--------------------------------|
G|------------ 3-- 2---------- 0 4|---------------- 4---------- 2--|
D|---- 4------ 2------ 0------ 2--|---- 4------ 4------ 2------ 0--|
A|-------- 4------ 2------ 1------|--------------------------------|
E|------------------------------ 5|------ 4-------- 3------ 2------|
http://classicalguitartablature.blogspot.com/
E|------ 7-------- 9--------------| 9-- 7---------------------- 5--|
B|------ 7--------10----10--------|10-- 9---------------------- 7--|
G|---- 7 6--------11------ 9------| 9-- 7---------- 6---------- 5--|
D|---- 9------ 7------11------ 9--|-------------- 9---- 5----------|
A| 8---- 6------------------------|--------------------------------|
E|----------------10------ 9------| 8------ 7------ 6------ 5------|
http://classicalguitartablature.blogspot.com/
E| 4---------------------- 0------|------------------------ 2------|
B| 5-------------- 2------ 1------| 9---------------------- 5------|
G| 4---------- 4-- 2------ 2------| 6------------------ 4-- 3------|
D|---- 6------ 3------ 1------ 2--|---- 8------ 7------ 4------ 2--|
A|--------------------------------|-------- 6------ 5------ 4------|
E| 4------ 3------ 2------ 1------| 0------------------------------|
http://classicalguitartablature.blogspot.com/
E| 5-- 7--------------------------|---------------- 9--------------|
B| 3-- 7--------------------------|---------------- 7------ 5------|
G| 3-- 7------ 7------ 6------ 4--|---- 4------ 4-- 7------ 5------|
D|------------ 7------ 5------ 4--|---- 4------ 2------ 7------ 7--|
A| 3------------------------------|---------------- 9------ 8------|
E|-------- 7------ 6------ 5------| 4------ 3----------------------|
http://classicalguitartablature.blogspot.com/
E| 5------------------------------|--------------------------------|
B| 9------------------------------|--------------------------------|
G| 6------------------------------|--------------------------------|
D|--------------------------------|--------------------------------|
A| 7------------------------------|--------------------------------|
E|--------------------------------|--------------------------------|
http://classicalguitartablature.blogspot.com/

0 ความคิดเห็น:

แสดงความคิดเห็น