To celebrate the anniversary, I am giving you (finally...) : iPhone LickByNeck !!!!!!

Black Coffee (BASIC)

Bluesy jazz tune fingerstyle chord melody guitar BASIC arrangement played in the key of F.
Black Coffee - BASIC ARRANGEMENT played in the key of F
http://classicalguitartablature.blogspot.com/
E|------------ 8------------------|------------ 4-- 3------ 1-- 1--|
B| 8--1011------10----------------|---------------- 5------ 4-- 4--|
G|10------10------10--10------10--|---- 3-- 5------ 3-- 3-- 3-- 2--|
D| 8------ 8------ 8-------- 8----|---- 5-- 5-------- 5------------|
A|10------10-------------------- 3|-------- 3------ 3--------------|
E|----------------10---- 9--------|------------------------ 2------|
http://classicalguitartablature.blogspot.com/
E|--------------------------------|--------------------------------|
B|-------- 4---------- 6----------|---------------------------- 1 4|
G|---- 2-------------- 5------ 5--| 3-- 3---------------- 3--------|
D|-- 1---------------- 4---- 4----| 3---- 3------------ 2----------|
A|---------- 3 4-- 5--------------|---------- 5 4-- 3--------------|
E| 1---------------------- 4------| 3------ 3----------------------|
http://classicalguitartablature.blogspot.com/
http://classicalguitartablature.blogspot.com/
E| 1-- 1-- 1-------------------- 1|---- 1 1------------------------|
B|---- 4-- 4-- 1-- 4-- 1-------- 4|------ 1---- 1 4------------ 1--|
G| 2-- 2-- 2-- 2-- 3-- 3----------| 2-- 2 2------------ 3---- 3----|
D|------------ 1-- 2-- 2------ 2--|------------------ 2------ 2----|
A|--------------------------------|--------------------------------|
E| 1------ 1------ 2------ 2------| 1---- 1------ 2-------- 2------|
http://classicalguitartablature.blogspot.com/
E| 1-- 1-- 1-------------------- 1|---- 1 1-------------- 1------ 4|
B| 4-- 4-- 4-- 1-- 4-- 4 4---- 1 4|---- 4 4---- 1 4------ 2------ 3|
G| 2-- 2-- 2-- 2-- 3---- 3------ 2|------ 2---- 2 2---- 2 2---- 2 1|
D|------------------ 2-- 2--------|-- 1-------- 1---- 4------ 1----|
A|--------------------------------|-------------- 2------ 2------ 1|
E| 1------ 1------ 2------ 2------| 1------ 1----------------------|
http://classicalguitartablature.blogspot.com/
E|--------------------------------|---- 8---- 6------------------ 1|
B|---- 3--------------------------|---- 6---- 6-- 9---- 6-------- 1|
G|---- 1------ 1------ 1------ 1--|---- 7---- 7-- 7---- 7---- 7-- 2|
D|---- 3---- 3-------- 3---- 3----|---- 6---------- 6-- 6---- 6----|
A| 1------ 1---- 1-------- 1------|---------------- 7--------------|
E|--------------------------------| 6---------------------------- 1|
http://classicalguitartablature.blogspot.com/
E|--------------------------------|--------------------------------|
B|---------- 1---------- 1--------|------------------------ 6------|
G|------ 2---- 2------ 3---- 3----| 8-- 7-- 6------------------ 5--|
D|---- 1------------ 2-------- 2--| 7-- 6-- 5---------- 4----------|
A|--------------------------------| 8-- 7-- 6-- 5------------------|
E|---------------- 2--------------|--------------------------------|
http://classicalguitartablature.blogspot.com/
E|------------ 8------------------|------------ 4-- 3------ 1-- 1--|
B| 8--1011------10----------------|---------------- 5------ 4-- 4--|
G|10------10------10--10------10--|---- 3-- 5------ 3-- 3-- 3-- 2--|
D| 8------ 8------ 8-------- 8----|---- 5-- 5-------- 5------------|
A|10------10-------------------- 3|-------- 3------ 3--------------|
E|----------------10---- 9--------|------------------------ 2------|
http://classicalguitartablature.blogspot.com/
E|--------------------------------|--------------------------------|
B|-------- 4---------- 6----------|---------------------------- 1 4|
G|---- 2-------------- 5------ 5--| 3-- 3---------------- 3--------|
D|-- 1---------------- 4---- 4----| 3---- 3------------ 2----------|
A|---------- 3 4-- 5--------------|---------- 5 4-- 3--------------|
E| 1---------------------- 4------| 3------ 3----------------------|
http://classicalguitartablature.blogspot.com/
E| 1-- 1-- 1-------------------- 1|---- 1 1------------------------|
B|---- 4-- 4-- 1-- 4-- 1-------- 4|------ 1---- 1 4------------ 1--|
G| 2-- 2-- 2-- 2-- 3-- 3----------| 2-- 2 2------------ 3---- 3----|
D|------------ 1-- 2-- 2------ 2--|------------------ 2------ 2----|
A|--------------------------------|--------------------------------|
E| 1------ 1------ 2------ 2------| 1---- 1------ 2-------- 2------|
http://classicalguitartablature.blogspot.com/
E| 1-- 1-- 1-------------------- 1|---- 1 1-------------- 1------ 4|
B| 4-- 4-- 4-- 1-- 4-- 4 4---- 1 4|---- 4 4---- 1 4------ 2------ 3|
G| 2-- 2-- 2-- 2-- 3---- 3------ 2|------ 2---- 2 2---- 2 2---- 2 1|
D|------------------ 2-- 2--------|-- 1-------- 1---- 4------ 1----|
A|--------------------------------|-------------- 2------ 2------ 1|
E| 1------ 1------ 2------ 2------| 1------ 1----------------------|
http://classicalguitartablature.blogspot.com/
E|--------------------------------|---- 8---- 6------------------ 1|
B|---- 3--------------------------|---- 6---- 6-- 9---- 6-------- 1|
G|---- 1------ 1------ 1------ 1--|---- 7---- 7-- 7---- 7---- 7-- 2|
D|---- 3---- 3-------- 3---- 3----|---- 6---------- 6-- 6---- 6----|
A| 1------ 1---- 1-------- 1------|---------------- 7--------------|
E|--------------------------------| 6---------------------------- 1|
http://classicalguitartablature.blogspot.com/
E|--------------------------------|--------------------------------|
B|---------- 1---------- 1--------|------------------------ 6------|
G|------ 2---- 2------ 3---- 3----| 8-- 7-- 6------------------ 5--|
D|---- 1------------ 2-------- 2--| 7-- 6-- 5---------- 4----------|
A|--------------------------------| 8-- 7-- 6-- 5------------------|
E|---------------- 2--------------|--------------------------------|
http://classicalguitartablature.blogspot.com/
E|------------ 8------------------|------------ 4-- 3------ 1-- 1--|
B| 8--1011------10----------------|---------------- 5------ 4-- 1--|
G|10------10------10--10------10--|---- 3-- 5------ 3-- 3-- 3-- 2--|
D| 8------ 8------ 8-------- 8----|---- 5-- 5-------- 5------------|
A|10------10-------------------- 3|-------- 3------ 3--------------|
E|----------------10---- 9--------|------------------------ 2------|
http://classicalguitartablature.blogspot.com/
E|--------------------------------|---------------------- 1---- 1--|
B|--------------------------------|-------------------- 2 2---- 2--|
G|-------- 2-------------- 3------|---- 2------ 2------ 2 2---- 2--|
D|---- 1-------------- 2------ 2--|---- 1---- 1-------- 1----------|
A|--------------------------------|---------------- 2------ 2------|
E| 1---------- 1-- 2--------------| 1---- 1------------------------|
http://classicalguitartablature.blogspot.com/
E| 6-- 8 6-------- 6---------- 8 4|---- 1---------------------- 1--|
B| 6-- 6 6---- 9-- 6------------ 1|---- 1------------------------11|
G| 6-- 6 6---- 6-- 6---- 6------ 1|---- 1------ 1-------- 1------10|
D|------------ 6------ 6----------|-------- 1---------- 1--------11|
A|---------------- 6--------------|-------------- 3----------------|
E| 6------------------------------| 1------------------------------|
http://classicalguitartablature.blogspot.com/
E|------------ 8-- 9----11--------| 8-------------------------- 8--|
B|----13--11--11-- 8---- 9--------| 9---------- 9------------------|
G|----10--10------ 9-- 9-- 9-- 9--| 8------ 8-------------- 8------|
D|----11-- 8-------- 8------ 9----|----10--------------10----------|
A|10---------------------- 9------| 8------------------------------|
E|-------- 9------ 8--------------|---------------- 8--------------|
http://classicalguitartablature.blogspot.com/
E| 9-- 9 9---- 9-- 9----------12--| 9-- 9---------------------- 6--|
B|12--12--12--12-- 9----------10--| 9-- 9---------------------- 7--|
G|11--11--11--11--10--10------10--| 8-- 8------ 8------ 6------ 6--|
D|------------------ 9------------|---------- 8------ 8------------|
A|11----------------------10------| 9------ 8------ 6--------------|
E|--------11------ 9--------------|---------------------- 6--------|
http://classicalguitartablature.blogspot.com/
E| 9-- 9-- 9-- 9-------------- 9--|--------------------------------|
B|12--12--12--12-- 2----------1013|--131313----13 1------------ 1 4|
G|11--11--11--11-- 4-- 4----10--10|--101010----10 3------------ 3--|
D|------------------ 3----------12|--121212----12------ 2---- 2----|
A|11-------------- 4------10----10|-------------- 3----------------|
E|--------11----------------------|------10-------------- 2--------|
http://classicalguitartablature.blogspot.com/
E| 1-- 1-- 1-------------------- 1|---- 1 1------------------------|
B|---- 4-- 4-- 1-- 4-- 1-------- 4|------ 1---- 1 4------------ 1--|
G| 2-- 2-- 2-- 2-- 3-- 3----------| 2-- 2 2------------ 3---- 3----|
D|------------ 1-- 2-- 2------ 2--|------------------ 2------ 2----|
A|--------------------------------|--------------------------------|
E| 1------ 1------ 2------ 2------| 1---- 1------ 2-------- 2------|
http://classicalguitartablature.blogspot.com/
E| 1-- 1-- 1-------------------- 1|---- 1 1-------------- 1------ 4|
B| 4-- 4-- 4-- 1-- 4-- 4 4---- 1 4|---- 4 4---- 1 4------ 2------ 3|
G| 2-- 2-- 2-- 2-- 3---- 3------ 2|------ 2---- 2 2---- 2 2---- 2 1|
D|------------------ 2-- 2--------|-- 1-------- 1---- 4------ 1----|
A|--------------------------------|-------------- 2------ 2------ 1|
E| 1------ 1------ 2------ 2------| 1------ 1----------------------|
http://classicalguitartablature.blogspot.com/
E|--------------------------------|---- 8---- 6--------------------|
B|---- 3--------------------------|---- 6---- 6-- 9---- 6----------|
G|---- 1------ 1------ 1------ 1--|---- 7---- 7-- 7---- 7---- 7----|
D|---- 3---- 3-------- 3---- 3----|---- 6---------- 6-- 6---- 6----|
A| 1------ 1---- 1-------- 1------|---------------- 7--------------|
E|--------------------------------| 6------------------------------|
http://classicalguitartablature.blogspot.com/
E|--------------------------------|---------- 5 811----11------10--|
B| 1------------------------------|------ 6------10----10------11--|
G| 2-- 2------ 2------ 3------ 3--|---- 7 7------11----11------11--|
D| 2-- 2------ 2------ 3---- 3----|---- 5 5------------------------|
A|--------------------------------|------------------------11------|
E| 1------ 1------ 3------ 3------| 5---- 5------10----------------|
http://classicalguitartablature.blogspot.com/
E| 6-- 5-- 6-- 8-- 5--------------|------------ 4---------- 1-- 1--|
B| 3-- 3-- 6-- 6-- 6-- 6----------|---- 3-- 6------ 8------ 1-- 1--|
G| 3-- 3-- 5------ 7-- 7------ 7--|---- 3-- 4------ 5-- 5-- 1-- 2--|
D|-------------------- 7---- 7----|---- 3-- 6-------- 5------------|
A|--------------------------------| 3------ 5------ 6--------------|
E| 3------ 5------ 6------ 7------|------------------------ 0-- 1--|
http://classicalguitartablature.blogspot.com/
E|--------------------------------|--------------------------------|
B|------------------------------ 1|--------------------------------|
G|------------------------------ 3|---- 3 3------ 2----------------|
D|------------------------------ 2|---- 3 2---- 1------------------|
A|---- 0------ 0-- 1-- 1-- 2-- 2 3|--------------------------------|
E|--------------------------------|---- 3 2---- 1------------------|
http://classicalguitartablature.blogspot.com/

0 ความคิดเห็น:

แสดงความคิดเห็น