To celebrate the anniversary, I am giving you (finally...) : iPhone LickByNeck !!!!!!

Cottontail (BASIC)

Duke Ellington's tune fingerstyle chord melody guitar BASIC arrangement played in the key of Ab.
Cottontail - BASIC ARRANGEMENT played in the key of Ab
http://classicalguitartablature.blogspot.com/
E|--------10------------------13--|11-- 9------ 8-------------- 4--|
B|------------11----------11------| 9-- 9------ 9------11------ 4--|
G|----11------------------11------|10--10------10-------------- 5--|
D|--------------------10----------|--------10----------------------|
A|11------------------------------|--------------------------------|
E|----------------10--------------| 9--------------10--------------|
http://classicalguitartablature.blogspot.com/
E|------------ 3------------------|------------ 4------------------|
B|---- 6 7---- 4------ 4-- 5-- 6--|---- 7-- 8-- 4------------------|
G|------------ 6-------------- 5--|------------ 5---------- 5------|
D|------------------------------ 6|-------------------- 6------ 6--|
A|---------------- 6--------------|---------------- 6--------------|
E| 4------------------------------| 4------------------------------|
http://classicalguitartablature.blogspot.com/
http://classicalguitartablature.blogspot.com/
E|---- 6------------------ 8------| 6---------- 6------------------|
B|---- 4-------------- 9----------| 6------------------------------|
G|---- 5------ 5--10--------------|-------- 6-------------- 6------|
D|-------- 5------10----------10--|---- 6-------------- 5------ 5--|
A|---------------- 8--------------|---------------- 6--------------|
E| 4------------------------------| 6------------------------------|
http://classicalguitartablature.blogspot.com/
E|---------------------------- 8--| 6------------------------------|
B|----11--------11----------------| 6-- 9-- 6------ 4--------------|
G|------------ 8---------- 8------| 6---------------------- 6------|
D|------ 8------------10----------|------------ 6------ 5------ 5--|
A|---------------- 8--------------|---------------- 6--------------|
E| 8------------------------------| 6------------------------------|
http://classicalguitartablature.blogspot.com/
E|--------10------------------13--|11-- 9------ 8-------------- 4--|
B|------------11----------11------| 9-- 9------ 9------11------ 4--|
G|----11------------------11------|10--10------10-------------- 5--|
D|--------------------10----------|--------10----------------------|
A|11------------------------------|--------------------------------|
E|----------------10--------------| 9--------------10--------------|
http://classicalguitartablature.blogspot.com/
E|------------ 3-------------- 1--|--------------------------------|
B|---- 6 7---- 4------ 4-- 5-- 2--|---- 2-- 3-- 4------------------|
G|------------ 6-------------- 2--|---- 2-- 2-- 6------ 6------ 6--|
D|--------------------------------|---- 1------ 6------ 6------ 5--|
A|---------------- 6--------------|------------------------ 6------|
E| 4------------------------------| 1-------------- 6--------------|
http://classicalguitartablature.blogspot.com/
E|---- 6------------------ 8------| 6---------- 6------------------|
B|---- 4-------------- 9----------| 6------------------------------|
G|---- 5------ 5--10--------------|-------- 6-------------- 6------|
D|-------- 5------10----------10--|---- 6-------------- 5------ 5--|
A|---------------- 8--------------|---------------- 6--------------|
E| 4------------------------------| 6------------------------------|
http://classicalguitartablature.blogspot.com/
E|---------------------------- 8--| 6------------------------------|
B|----11--------11----------------| 6-- 9-- 6------ 4--------------|
G|------------ 8---------- 8------| 6---------------------- 6------|
D|------ 8------------10----------|------------ 6------ 5------ 5--|
A|---------------- 8--------------|---------------- 6--------------|
E| 8------------------------------| 6------------------------------|
http://classicalguitartablature.blogspot.com/
E|--------10------------------13--|11-- 9------ 8-------------- 4--|
B|------------11----------11------| 9-- 9------ 9------11------ 4--|
G|----11------------------11------|10--10------10-------------- 5--|
D|--------------------10----------|--------10----------------------|
A|11------------------------------|--------------------------------|
E|----------------10--------------| 9--------------10--------------|
http://classicalguitartablature.blogspot.com/
E|------------ 3------------------|------------ 4------------------|
B|---- 6 7---- 4------ 4-- 5-- 6--|---- 7-- 8-- 4------------------|
G|------------ 6-------------- 5--|------------ 5---------- 5------|
D|------------------------------ 6|-------------------- 6------ 6--|
A|---------------- 6--------------|---------------- 6--------------|
E| 4------------------------------| 4------------------------------|
http://classicalguitartablature.blogspot.com/
E|--------------------------------|--------------------------------|
B|------------ 2------------------|--------------------------------|
G|-------- 3-------------- 4------|-------- 3-------------- 3------|
D|---- 3-------------- 3------ 3--|---- 2------ 2------ 2------ 2--|
A|---------------- 4--------------| 3------------------------------|
E| 3------------------------------|---------------- 3--------------|
http://classicalguitartablature.blogspot.com/
E|--------------------------------|--------------------------------|
B|--------------------------------|--------------------------------|
G|-------- 3-------------- 3------|---- 2---- 3-------- 5----------|
D|---- 1------ 1------ 2------ 2--|---- 1---- 1-------- 3----------|
A| 3------------------------------|--------------------------------|
E|---------------- 2--------------| 1------ 3------ 5------ 5------|
http://classicalguitartablature.blogspot.com/
E|--------------------------------|--------------------------------|
B|------ 1------------------------|------------ 3-------------- 3--|
G|------------ 1------------------|-------- 1-------------- 1------|
D|---- 1--------------------------|---- 3-------------- 3----------|
A|-------------- 3-------- 2-- 0--| 1------------------------------|
E| 1------------------------------|---------------- 1--------------|
http://classicalguitartablature.blogspot.com/
E|--------------------------------|--------------------------------|
B|------------ 4------------------|------------ 4------------------|
G|-------- 6----------------------|------ 6---------------- 6------|
D|---- 6--------------------------|---- 5-------------- 5------ 5--|
A|-------------------- 4-- 5-- 6--|--------------------------------|
E| 6------------------------------|---------------- 5--------------|
http://classicalguitartablature.blogspot.com/
E|---- 6------------------ 8------| 6---------- 6------------------|
B|---- 4-------------- 9----------| 6------------------------------|
G|---- 5------ 5--10--------------|-------- 6-------------- 6------|
D|-------- 5------10----------10--|---- 6-------------- 5------ 5--|
A|---------------- 8--------------|---------------- 6--------------|
E| 4------------------------------| 6------------------------------|
http://classicalguitartablature.blogspot.com/
E|---------------------------- 8--| 6------------------------------|
B|----11--------11----------------| 6-- 9-- 6------ 4--------------|
G|------------ 8---------- 8------| 6---------------------- 6------|
D|------ 8------------10----------|------------ 6------ 5------ 5--|
A|---------------- 8--------------|---------------- 6--------------|
E| 8------------------------------| 6------------------------------|
http://classicalguitartablature.blogspot.com/
E|--------10------------------13--|11-- 9------ 8-------------- 4--|
B|------------11----------11------| 9-- 9------ 9------11------ 4--|
G|----11------------------11------|10--10------10-------------- 5--|
D|--------------------10----------|--------10----------------------|
A|11------------------------------|--------------------------------|
E|----------------10--------------| 9--------------10--------------|
http://classicalguitartablature.blogspot.com/
E|------------ 3------------------|------------ 4-------------- 4--|
B|---- 6 7---- 4------ 4-- 5-- 6--|---- 7-- 8-- 4-------------- 4--|
G|------------ 6-------------- 5--|------------ 5---------- 5-- 5--|
D|------------------------------ 6|-------------------- 6----------|
A|---------------- 6--------------|---------------- 6--------------|
E| 4------------------------------| 4------------------------------|
http://classicalguitartablature.blogspot.com/
E|------------ 3------------------|------------ 4-------------- 4--|
B|---- 6 7---- 4------ 4-- 5-- 6--|---- 7-- 8-- 4-------------- 4--|
G|------------ 6-------------- 5--|------------ 5---------- 5-- 5--|
D|------------------------------ 6|-------------------- 6----------|
A|---------------- 6--------------|---------------- 6--------------|
E| 4------------------------------| 4------------------------------|
http://classicalguitartablature.blogspot.com/
E|------------ 3------------------|------------ 4---------- 4------|
B|---- 6 7---- 4------ 4-- 5-- 6--|---- 7-- 8-- 4---------- 4------|
G|------------ 6-------------- 5--|------------ 5---------- 5------|
D|------------------------------ 6|--------------------------------|
A|---------------- 6--------------|------------ 6------------------|
E| 4------------------------------| 4---------------------- 4------|
http://classicalguitartablature.blogspot.com/
E|--------------------------------|--------------------------------|
B|--------------------------------|--------------------------------|
G|--------------------------------|--------------------------------|
D|--------------------------------|--------------------------------|
A|--------------------------------|--------------------------------|
E|--------------------------------|--------------------------------|
http://classicalguitartablature.blogspot.com/

0 ความคิดเห็น:

แสดงความคิดเห็น