To celebrate the anniversary, I am giving you (finally...) : iPhone LickByNeck !!!!!!

Daahoud (BASIC)

Clifford Brown's tune fingerstyle chord melody guitar BASIC arrangement played in the key of Eb.
Daahoud- BASIC Arrangement played in the key of Eb.
http://classicalguitartablature.blogspot.com/
E|---- 2--------------------------|--------------------------------|
B|---- 4-- 4-- 2---------- 2-- 3--|--------------------------------|
G|---- 2-- 2-- 1------ 3------ 3--|------ 3---------------- 3------|
D|-------- 4-- 0------------------|---- 4------ 4------ 4------ 4--|
A| 2-------------- 1--------------| 6------------------------------|
E|--------------------------------|---------------- 6--------------|
http://classicalguitartablature.blogspot.com/
E|-------------------- 6--10----13|--------------------------------|
B|---------------- 7------------11|------------11--------------11--|
G|----10-- 7-- 8-- 7------------11|--------11--------------11------|
D|---- 9---------- 6--------------|----11--------------11----------|
A| 8------------------------------|----------------11--------------|
E|---------------- 6--------------|11------------------------------|
http://classicalguitartablature.blogspot.com/
http://classicalguitartablature.blogspot.com/
E|--------11-- 9------14----------| 6------------------------------|
B|----------------16----------14--| 7-- 7-- 8-- 9------------------|
G|---- 9----------15--------------| 8---------------------- 8------|
D|---- 9--------------------------|-------------------- 9------ 9--|
A|--------------------------------|---------------- 9--------------|
E| 9--------------14--------------| 7------------------------------|
http://classicalguitartablature.blogspot.com/
E|---------------- 6--------------|--------------------------------|
B|--------11-- 9-- 6-- 9-- 7-- 4--|--------------------------------|
G|---- 8---------- 7-- 7-- 7-- 5--|-------- 5-------------- 5------|
D|----10-------------- 6-- 6-- 5--|---- 5------ 5------ 5------ 5--|
A| 8------------------------------| 6------------------------------|
E|---------------- 6--------------|---------------- 6--------------|
http://classicalguitartablature.blogspot.com/
E|---- 2--------------------------|--------------------------------|
B|---- 4-- 4-- 2---------- 2-- 3--|--------------------------------|
G|---- 2-- 2-- 1------ 3------ 3--|------ 3---------------- 3------|
D|-------- 4-- 0------------------|---- 4------ 4------ 4------ 4--|
A| 2-------------- 1--------------| 6------------------------------|
E|--------------------------------|---------------- 6--------------|
http://classicalguitartablature.blogspot.com/
E|-------------------- 6--10----13|--------------------------------|
B|---------------- 7------------11|------------11--------------11--|
G|----10-- 7-- 8-- 7------------11|--------11--------------11------|
D|---- 9---------- 6--------------|----11--------------11----------|
A| 8------------------------------|----------------11--------------|
E|---------------- 6--------------|11------------------------------|
http://classicalguitartablature.blogspot.com/
E|--------11-- 9------14----------| 6------------------------------|
B|----------------16----------14--| 7-- 7-- 8-- 9------------------|
G|---- 9----------15--------------| 8---------------------- 8------|
D|---- 9--------------------------|-------------------- 9------ 9--|
A|--------------------------------|---------------- 9--------------|
E| 9--------------14--------------| 7------------------------------|
http://classicalguitartablature.blogspot.com/
E|---------------- 6--------------|--------------------------------|
B|--------11-- 9-- 6-- 9-- 7-- 4--|--------------------------------|
G|---- 8---------- 7-- 7-- 7-- 5--|-------- 5-------------- 5------|
D|----10-------------- 6-- 6-- 5--|---- 5------ 5------ 5------ 5--|
A| 8------------------------------| 6------------------------------|
E|---------------- 6--------------|---------------- 6--------------|
http://classicalguitartablature.blogspot.com/
E|---- 2--------------------------|--------------------------------|
B|---- 4-- 4-- 2---------- 2-- 3--|--------------------------------|
G|---- 2-- 2-- 1------ 3------ 3--|------ 3---------------- 3------|
D|-------- 4-- 0------------------|---- 4------ 4------ 4------ 4--|
A| 2-------------- 1--------------| 6------------------------------|
E|--------------------------------|---------------- 6--------------|
http://classicalguitartablature.blogspot.com/
E|----------------------------11--|--------------------11--11--11--|
B|-------------------- 3-- 4--14--|--------------------14--14--14--|
G|-------- 3---------- 2-- 2--13--|--------13----------13--13--13--|
D|---- 4------ 4------ 1-- 1------|----11------11------------------|
A| 3------------------------------|13------------------------------|
E|---------------- 1--------------|----------------13--------------|
http://classicalguitartablature.blogspot.com/
E|------------14------11----------|11------------------------------|
B|------------14------11------14--|------------------------11------|
G|--------12----------12----------|--------12------------------13--|
D|----11------------------11------|----13------13------13----------|
A|--------------------------------|11------------------------------|
E|11--------------11--------------|----------------11--------------|
http://classicalguitartablature.blogspot.com/
E|--------------------------------|--------------------------------|
B|----------------------------14--|--------------------14--14--14--|
G|-------- 5---------- 5 6----11--|--------11----------11--11--11--|
D|---- 5------ 5------ 5-- 5--13--|----13------13------13--13--13--|
A|---------------- 6--------------|11------------------------------|
E| 4------------------------------|----------------11--------------|
http://classicalguitartablature.blogspot.com/
E|------------12------ 9----------| 9------------------------------|
B|-------- 9--12------ 9------11--| 9--------------11-- 9------11--|
G|--------10--10------------------| 8------ 8------10------1110----|
D|---- 9--------------------------|---- 8------ 8--11--------------|
A|--------------------------------| 9------------------------------|
E| 9-------------- 9------ 9------|---------------- 9--------------|
http://classicalguitartablature.blogspot.com/
E|-------------------- 6--10----13|--------------------------------|
B|---------------- 7------------11|------------11--------------11--|
G|----10-- 7-- 8-- 7------------11|--------11--------------11------|
D|---- 9---------- 6--------------|----11--------------11----------|
A| 8------------------------------|----------------11--------------|
E|---------------- 6--------------|11------------------------------|
http://classicalguitartablature.blogspot.com/
E|--------11-- 9------14----------| 6------------------------------|
B|----------------16----------14--| 7-- 7-- 8-- 9------------------|
G|---- 9----------15--------------| 8---------------------- 8------|
D|---- 9--------------------------|-------------------- 9------ 9--|
A|--------------------------------|---------------- 9--------------|
E| 9--------------14--------------| 7------------------------------|
http://classicalguitartablature.blogspot.com/
E|---------------- 6--------------|--------------------------------|
B|--------11-- 9-- 6-- 9-- 7-- 4--|--------------------------------|
G|---- 8---------- 7-- 7-- 7-- 5--|-------- 5-------------- 5------|
D|----10-------------- 6-- 6-- 5--|---- 5------ 5------ 5------ 5--|
A| 8------------------------------| 6------------------------------|
E|---------------- 6--------------|---------------- 6--------------|
http://classicalguitartablature.blogspot.com/
E|---- 2--------------------------|--------------------------------|
B|---- 4-- 4-- 2---------- 2-- 3--|--------------------------------|
G|---- 2-- 2-- 1------ 3------ 3--|------ 3---------------- 3------|
D|-------- 4-- 0------------------|---- 4------ 4------ 4------ 4--|
A| 2-------------- 1--------------| 6------------------------------|
E|--------------------------------|---------------- 6--------------|
http://classicalguitartablature.blogspot.com/
E|------ 6------------ 9------ 6--|------------ 6------------------|
B|---- 4------ 9--------12---- 6--|-------------------- 9------ 6--|
G|---- 4------10-------------- 6--|-------- 6--------------11-- 6--|
D|---- 4------ 9------------------|---- 8---------------------- 4--|
A|------------------------------ 9|--------------------------------|
E| 4-------------- 9--------------|---------------- 9--------------|
http://classicalguitartablature.blogspot.com/
E|--------------------------------|---- 2 1---- 4------------------|
B|------------ 6------ 4 2---- 1--|---------------- 7-- 6------ 3--|
G|-------- 6---------- 3 3---- 2--|---------------- 7------ 8-- 3--|
D|---- 4-------------- 4 4---- 1--|---------------- 6---------- 5--|
A| 6------------------------------| 2------------------------------|
E|---------------- 4--------------|---------------- 6--------------|
http://classicalguitartablature.blogspot.com/
E|--------------------------------|--------------------------------|
B|--------------------------------|--------------------------------|
G|--------------------------------|--------------------------------|
D|--------------------------------|--------------------------------|
A| 6------------------------------|--------------------------------|
E|--------------------------------|--------------------------------|
http://classicalguitartablature.blogspot.com/

0 ความคิดเห็น:

แสดงความคิดเห็น