To celebrate the anniversary, I am giving you (finally...) : iPhone LickByNeck !!!!!!

Daahoud (Intermediate)

Clifford Brown's tune fingerstyle chord melody guitar intermediate arrangement played in the key of Eb.
Daahoud- Intermediate Arrangement played in the key of Eb.
http://classicalguitartablature.blogspot.com/
E|---- 2--------------------------|--------------------------------|
B|---- 4-- 4-- 2---------- 2-- 3--|--------------------------------|
G|---- 2-- 2-- 1------ 3-- 1-- 3--|------------ 3-------------- 0--|
D|-------- 4-- 0---------- 0-- 4--|------ 4------------ 4------ 2--|
A| 2------ 0------ 1--------------|---------------- 6--------------|
E|------------------------ 4------| 2------ 0-------------- 0------|
http://classicalguitartablature.blogspot.com/
E|---- 1---------------- 610--13--|--------------------------------|
B|---- 1-- 3-- 4-- 7------ 9--11--|--------------------------------|
G|---- 1-- 5-- 5-- 7------10--11--|---------------------- 8------ 6|
D|-------- 6-- 6-- 6--------------|------11------11------ 6------ 4|
A|-------- 6----------------------|--------------------------------|
E| 1-------------- 0------10------|11------ 9------ 8------ 6------|
http://classicalguitartablature.blogspot.com/
http://classicalguitartablature.blogspot.com/
E|----------11 9------14--11------|--------------------------------|
B|--------10--10--16------11--14--|11------ 8-- 9------------------|
G|---- 4-- 9-- 9--15------11--11--|11--11-- 9-- 8------------------|
D|---- 2----------14----------11--| 9------ 9---- 9---- 9------ 9--|
A|--------10----------------------|--------------------------------|
E| 4--------------14------12------|11------ 9------ 7------ 6------|
http://classicalguitartablature.blogspot.com/
E|-------- 6-- 4-- 6--------------|--------------------------------|
B|-------- 4-- 4-- 6-- 9-- 7---- 4|--------------------------------|
G| 4------ 3-- 3-- 7-- 7-- 7---- 3|------ 3------ 3------ 3--------|
D|------ 3------------ 6-- 6---- 5|------ 5------ 3------ 5------ 3|
A|---------------- 8------ 7------| 6------ 5------ 4------ 3------|
E| 4------ 2----------------------|--------------------------------|
http://classicalguitartablature.blogspot.com/
E|---- 2--------------------------|--------------------------------|
B|---- 4-- 4-- 2---------- 2-- 3--|--------------------------------|
G|---- 2-- 2-- 1------ 3-- 1-- 3--|------------ 3-------------- 0--|
D|-------- 4-- 0---------- 0-- 4--|------ 4------------ 4------ 2--|
A| 2------ 0------ 1--------------|---------------- 6--------------|
E|------------------------ 4------| 2------ 0-------------- 0------|
http://classicalguitartablature.blogspot.com/
E|---- 1---------------- 610--13--|--------------------------------|
B|---- 1-- 3-- 4-- 7------ 9--11--|--------------------------------|
G|---- 1-- 5-- 5-- 7------10--11--|---------------------- 8------ 6|
D|-------- 6-- 6-- 6--------------|------11------11------ 6------ 4|
A|-------- 6----------------------|--------------------------------|
E| 1-------------- 0------10------|11------ 9------ 8------ 6------|
http://classicalguitartablature.blogspot.com/
E|----------11 9------14--11------|--------------------------------|
B|--------10--10--16------11--14--|11------ 8-- 9------------------|
G|---- 4-- 9-- 9--15------11--11--|11--11-- 9-- 8------------------|
D|---- 2----------14----------11--| 9------ 9---- 9---- 9------ 9--|
A|--------10----------------------|--------------------------------|
E| 4--------------14------12------|11------ 9------ 7------ 6------|
http://classicalguitartablature.blogspot.com/
E|-------- 6-- 4-- 6--------------|--------------------------------|
B|-------- 4-- 4-- 6-- 9-- 7---- 4|--------------------------------|
G| 4------ 3-- 3-- 7-- 7-- 7---- 3|------ 3------ 3------ 3--------|
D|------ 3------------ 6-- 6---- 5|------ 5------ 3------ 5------ 3|
A|---------------- 8------ 7------| 6------ 5------ 4------ 3------|
E| 4------ 2----------------------|--------------------------------|
http://classicalguitartablature.blogspot.com/
E|---- 2--------------------------|--------------------------------|
B|---- 4-- 4-- 2---------- 2-- 3--|--------------------------------|
G|---- 2-- 2-- 1------ 3-- 1-- 3--|------------ 3-------------- 0--|
D|-------- 4-- 0---------- 0-- 4--|------ 4------------ 4------ 2--|
A| 2------ 0------ 1--------------|---------------- 6--------------|
E|------------------------ 4------| 2------ 0-------------- 0------|
http://classicalguitartablature.blogspot.com/
E|------------------------------11|--------------------11--11--11--|
B|-------------------- 3-- 4----14|--------------------11--11--11--|
G| 1------------ 3---- 5-- 5----13|----1311------11----10--10--10--|
D|---- 1-------- 2------ 3 4------|----11--------13----------------|
A|--------------------------------|13------12------11------10------|
E| 1------ 3------ 4------ 5------|--------------------------------|
http://classicalguitartablature.blogspot.com/
E|------------14------11------ 9--|11------------------------------|
B|------------14------ 8------ 8--| 9----------------------11-- 9--|
G|---- 8-- 6--12------ 8------ 8--|---- 8-------- 8 5------ 9-- 9--|
D|---- 8-- 6----------------------|-------------------- 5--11--11--|
A| 9------ 8----------------------|------------------------ 9------|
E|----------------11------ 9------| 8------ 6------ 4--------------|
http://classicalguitartablature.blogspot.com/
E|---------------------------- 9--|-------------------- 9-- 9-- 9--|
B|-------------------- 1-- 2-- 9--|--------------------12--12--12--|
G|------ 8---- 5------ 3-- 3-- 8--|---- 8------ 6------11-- 9-- 9--|
D|------ 7---- 5------ 5-- 2------|---- 6------ 8------------------|
A| 8------ 6------ 4------ 3------|----------------11------10------|
E|--------------------------------| 7------ 6----------------------|
http://classicalguitartablature.blogspot.com/
E|------------12------------------| 9------------------------------|
B|------------12------14------11--|11--------------11-- 9--11--11--|
G|------1010--10------11------11--|------11------1110--10--11------|
D|------ 9 9----------13------13--|---------------- 9-- 9--11------|
A|11------10------ 8--------------|--------------------------------|
E|------------------------11------| 9------11------10------ 0------|
http://classicalguitartablature.blogspot.com/
E|---- 1---------------- 610--13--|--------------------------------|
B|---- 1-- 3-- 4-- 7------ 9--11--|--------------------------------|
G|---- 1-- 5-- 5-- 7------10--11--|---------------------- 8------ 6|
D|-------- 6-- 6-- 6--------------|------11------11------ 6------ 4|
A|-------- 6----------------------|--------------------------------|
E| 1-------------- 0------10------|11------ 9------ 8------ 6------|
http://classicalguitartablature.blogspot.com/
E|----------11 9------14--11------|--------------------------------|
B|--------10--10--16------11--14--|11------ 8-- 9------------------|
G|---- 4-- 9-- 9--15------11--11--|11--11-- 9-- 8------------------|
D|---- 2----------14----------11--| 9------ 9---- 9---- 9------ 9--|
A|--------10----------------------|--------------------------------|
E| 4--------------14------12------|11------ 9------ 7------ 6------|
http://classicalguitartablature.blogspot.com/
E|-------- 6-- 4-- 6--------------|--------------------------------|
B|-------- 4-- 4-- 6-- 9-- 7---- 4|--------------------------------|
G| 4------ 3-- 3-- 7-- 7-- 7---- 3|------ 3------ 3------ 3--------|
D|------ 3------------ 6-- 6---- 5|------ 5------ 3------ 5------ 3|
A|---------------- 8------ 7------| 6------ 5------ 4------ 3------|
E| 4------ 2----------------------|--------------------------------|
http://classicalguitartablature.blogspot.com/
E|---- 2--------------------------|--------------------------------|
B|---- 4-- 4-- 2---------- 2-- 3--|--------------------------------|
G|---- 2-- 2-- 1------ 3-- 1-- 3--|------------ 3-------------- 0--|
D|-------- 4-- 0---------- 0-- 4--|------ 4------------ 4------ 2--|
A| 2------ 0------ 1--------------|---------------- 6--------------|
E|------------------------ 4------| 2------ 0-------------- 0------|
http://classicalguitartablature.blogspot.com/
E|-------- 6---------- 9-- 7-- 6--|------------ 6------ 4-- 2------|
B|-------- 6-- 9---------- 9-- 4--|------------ 4------ 2-- 2---- 6|
G|---- 4-- 5--10---------- 7-- 6--|---- 6------ 6------ 3-- 1---- 6|
D|---- 4------ 9------------------|------------------------------ 4|
A| 6------ 5----------------------|--------------------------------|
E|---------------- 9------ 7------| 6------ 4------ 2------ 1------|
http://classicalguitartablature.blogspot.com/
E|--------------------------------|---- 2-- 1-- 4------------------|
B|------------ 6------ 4-- 2-- 1--|-------- 1------ 7-- 6-- 4-- 3--|
G|------------ 6------ 1-- 3-- 2--|-------- 1------ 4------ 4---- 3|
D|---- 4------ 4------ 4-- 4-- 1--|---------------- 6------ 3---- 5|
A| 6------ 4------ 3------ 1------| 2------ 3------ 5------ 4------|
E|--------------------------------|--------------------------------|
http://classicalguitartablature.blogspot.com/
E|--------------------------------|--------------------------------|
B|--------------------------------|--------------------------------|
G|--------------------------------|--------------------------------|
D|--------------------------------|--------------------------------|
A| 6------------------------------|--------------------------------|
E|--------------------------------|--------------------------------|
http://classicalguitartablature.blogspot.com/

0 ความคิดเห็น:

แสดงความคิดเห็น