To celebrate the anniversary, I am giving you (finally...) : iPhone LickByNeck !!!!!!

Days And Nights Waiting (BASIC)

Keith Jarrett's fingerstyle chord melody guitar BASIC arrangement played in the key of C.
Days And Nights Waiting- BASIC Arrangement played in the key of C.
http://classicalguitartablature.blogspot.com/
E|--------------------------------|------------ 2------------------|
B|10---------------------------- 5|-------------------- 5----------|
G| 9------ 9-------------- 9------| 2---- 2-------------------- 4 2|
D|---- 7------ 7------ 8------ 8--|---- 4---------------- 4--------|
A| 9---------------------------- 2|--------------------------------|
E|---------------- 8--------------|-------------- 2-------------- 0|
http://classicalguitartablature.blogspot.com/
E|------ 0------------------------|--------------------------------|
B|---------------- 0--------------| 3------------------------------|
G|-------------- 0-------- 0------|-------- 2-------------- 4------|
D|---- 2------ 2------ 2------ 2--|---- 4------ 4------ 3------ 3--|
A|---------------- 0--------------| 5------------------------------|
E|--------------------------------|---------------- 3--------------|
http://classicalguitartablature.blogspot.com/
http://classicalguitartablature.blogspot.com/
E|10------------------------------|----------------10------ 8------|
B| 8---------- 8------------------|10--------------10------10------|
G| 8------ 8-------------- 8------| 8------ 8------ 8-- 8------ 8--|
D|---- 8-------------- 8------ 8--|----10------10------------------|
A|----------------10--------------| 8------------------------------|
E| 8------------------------------|---------------- 8--------------|
http://classicalguitartablature.blogspot.com/
E|----10---------------------- 8--| 5------------------------------|
B|10----------13-- 6-- 8----------| 5------------------------------|
G|10-------------- 7------ 7------| 6------ 6-------------- 6------|
D|12------12----------------------|---- 5-------- 5---- 5------ 5--|
A|13-------------- 8--------------|---------------- 7--------------|
E|--------------------------------| 5------------------------------|
http://classicalguitartablature.blogspot.com/
E|--------------------------------|------------ 2------------------|
B|10---------------------------- 5|-------------------- 5----------|
G| 9------ 9-------------- 9------| 2---- 2-------------------- 4 2|
D|---- 7------ 7------ 8------ 8--|---- 4---------------- 4--------|
A| 9---------------------------- 2|--------------------------------|
E|---------------- 8--------------|-------------- 2-------------- 0|
http://classicalguitartablature.blogspot.com/
E|------ 0------------------------|--------------------------------|
B|---------------- 0--------------| 3------------------------------|
G|-------------- 0-------- 0------|-------- 2-------------- 4------|
D|---- 2------ 2------ 2------ 2--|---- 4------ 4------ 3------ 3--|
A|---------------- 0--------------| 5------------------------------|
E|--------------------------------|---------------- 3--------------|
http://classicalguitartablature.blogspot.com/
E|10------------------------------|----------------10------ 8------|
B| 8---------- 8------------------|10--------------10------10------|
G| 8------ 8-------------- 8------| 8------ 8------ 8-- 8------ 8--|
D|---- 8-------------- 8------ 8--|----10------10------------------|
A|----------------10--------------| 8------------------------------|
E| 8------------------------------|---------------- 8--------------|
http://classicalguitartablature.blogspot.com/
E|----10---------------------- 8--| 5------------------------------|
B|10----------13-- 6-- 8----------| 5------------------------------|
G|10-------------- 7------ 7------| 6------ 6-------------- 6------|
D|12------12----------------------|---- 5-------- 5---- 5------ 5--|
A|13-------------- 8--------------|---------------- 7--------------|
E|--------------------------------| 5------------------------------|
http://classicalguitartablature.blogspot.com/
E|--------------------------------|------------ 2------------------|
B|10---------------------------- 5|-------------------- 5----------|
G| 9------ 9-------------- 9------| 2---- 2-------------------- 4 2|
D|---- 7------ 7------ 8------ 8--|---- 4---------------- 4--------|
A| 9---------------------------- 2|--------------------------------|
E|---------------- 8--------------|-------------- 2-------------- 0|
http://classicalguitartablature.blogspot.com/
E|------ 0------------------------|--------------------------------|
B|---------------- 0--------------| 3------------------------------|
G|-------------- 0-------- 0------|-------- 2-------------- 4------|
D|---- 2------ 2------ 2------ 2--|---- 4------ 4------ 3------ 3--|
A|---------------- 0--------------| 5------------------------------|
E|--------------------------------|---------------- 3--------------|
http://classicalguitartablature.blogspot.com/
E| 1------------------------------|------------10 8----------------|
B| 4------------------------------|--------------10--------10------|
G| 3------ 3------------ 3------ 7|---- 8-------- 8------------ 8--|
D|---- 1------ 1------ 1------ 1 7|------ 7------------10----------|
A| 3---------------------------- 8|--------------------------------|
E|---------------- 2--------------|---------------- 8--------------|
http://classicalguitartablature.blogspot.com/
E|--------------------------------|------------10---------------- 1|
B| 6------------------------------| 3-- 4----------13----10------ 4|
G| 6------ 6-------------- 6------| 5-- 5----------11--------------|
D|---- 4------ 4------ 4------ 4--| 4-- 4-- 4----------10------10--|
A| 6------------------------------|--------------------------------|
E|---------------- 5--------------| 4--------------10--------------|
http://classicalguitartablature.blogspot.com/
E|--------------------------------|------------ 3------------------|
B|--------------------------------| 3-- 4---------- 3------ 5------|
G| 3------ 3-------------- 3------| 2------ 2------ 2-------- 3----|
D|---- 1------ 1------ 1------ 1--| 1------------------ 1-- 5-- 5--|
A| 3------------------------------|---------------- 3------ 4------|
E|---------------- 2--------------| 1------------------------------|
http://classicalguitartablature.blogspot.com/
E|---------------- 3------------ 4|-------------- 6----------------|
B| 6-------------- 6------------ 5|-------------- 4----------------|
G| 5---- 5-------- 4------ 4------|------ 4------ 3------ 3--------|
D|---- 3------ 3------ 3------ 3--|---- 6------ 6------ 2------ 2--|
A| 5------------------------------| 4------------------------------|
E|---------------- 3--------------|-------------- 2----------------|
http://classicalguitartablature.blogspot.com/
E|10------------------------------|----------------10------ 8------|
B| 8---------- 8------------------|10--------------10------10------|
G| 8------ 8-------------- 8------| 8------ 8------ 8-- 8------ 8--|
D|---- 8-------------- 8------ 8--|----10------10------------------|
A|----------------10--------------| 8------------------------------|
E| 8------------------------------|---------------- 8--------------|
http://classicalguitartablature.blogspot.com/
E|----10---------------------- 8--| 5------------------------------|
B|10----------13-- 6-- 8----------| 5------------------------------|
G|10-------------- 7------ 7------| 6------ 6-------------- 6------|
D|12------12----------------------|---- 5-------- 5---- 5------ 5--|
A|13-------------- 8--------------|---------------- 7--------------|
E|--------------------------------| 5------------------------------|
http://classicalguitartablature.blogspot.com/
E|--------------------------------|------------ 2------------------|
B|10---------------------------- 5|-------------------- 5----------|
G| 9------ 9-------------- 9------| 2---- 2-------------------- 4 2|
D|---- 7------ 7------ 8------ 8--|---- 4---------------- 4--------|
A| 9---------------------------- 2|--------------------------------|
E|---------------- 8--------------|-------------- 2-------------- 0|
http://classicalguitartablature.blogspot.com/
E|------ 0------------------------|--------------------------------|
B|---------------- 0--------------| 3------------------------------|
G|-------------- 0-------- 0------|-------- 2-------------- 4------|
D|---- 2------ 2------ 2------ 2--|---- 4------ 4------ 3------ 3--|
A|---------------- 0--------------| 5---------------------------- 5|
E|--------------------------------|---------------- 3--------------|
http://classicalguitartablature.blogspot.com/
E|--------------------------------|--------------------------------|
B|-- 2----------------------------|--------------------------------|
G| 2------------------------------|--------------------------------|
D| 4------------------------------|--------------------------------|
A|--------------------------------|--------------------------------|
E|--------------------------------|--------------------------------|
http://classicalguitartablature.blogspot.com/

0 ความคิดเห็น:

แสดงความคิดเห็น