To celebrate the anniversary, I am giving you (finally...) : iPhone LickByNeck !!!!!!

Delores (Intermediate)

Wayne Shorter's tune fingerstyle chord melody guitar intermediate arrangement played in the key of C.
Delores - Wayne Shorter - Intermediate Arrangement played in the key of C.
http://classicalguitartablature.blogspot.com/
E|--------------------------------|--------------------------------|
B| 1------------------------------|------------ 6------------------|
G| 1------------------------------|-------- 6---------- 6----------|
D|---- 3-------- 1------ 1------ 1|---- 5------------------ 5------|
A| 4------ 3------ 1--------------|--------------------------------|
E|------------------------ 4------| 5------------------------------|
http://classicalguitartablature.blogspot.com/
E|--------------------------------| 8------------------------------|
B| 6------------------ 6-- 8--10--| 8-------------- 8------ 6-- 3--|
G| 5---------- 3------ 7-- 7------|---- 6-- 9------10------ 7-- 3--|
D|---- 3------ 5------ 7-- 7------|------------ 8------ 9-- 6------|
A| 5------ 4----------------------|------------------------ 7---- 6|
E|---------------- 8------ 7------| 6------ 8------10--------------|
http://classicalguitartablature.blogspot.com/
http://classicalguitartablature.blogspot.com/
E|--------------------1010---- 810|-------- 5------ 8------ 7------|
B|-------------------- 8 8------ 8|-------- 5------ 6------10--11--|
G|-------------------- 8 7--------| 9------ 5------ 5------ 7-- 8--|
D|---- 5------ 3------------------|---- 7------ 5------ 4------10--|
A|------ 5------------------------| 0---------------------- 9------|
E|-------------- 8------ 6--------|-------- 3------ 4--------------|
http://classicalguitartablature.blogspot.com/
E|--------------------------------|--------------------------------|
B|-------------------- 6 5------ 4|---------------- 6------ 5-- 4--|
G|-------------------- 4------ 7 5|-------- 5------ 8------ 5-- 5--|
D|----10------ 8------ 6-- 6------|---- 5------ 5------ 7-- 4-- 3--|
A| 8------10----------------------|------------------------ 5------|
E|-------------- 4------ 6------ 5|-------- 6------ 8--------------|
http://classicalguitartablature.blogspot.com/
E|--------------------------------|--------------------------------|
B|--------------------------------|--------------------------------|
G|-------------------- 6------ 6--|---- 3------ 3------ 1------ 0--|
D|---- 3------ 3------ 6------ 4--|---- 3------ 3------ 1------ 2--|
A| 4---- 3------------------------|--------------------------------|
E|---------------- 6------ 5------| 4------ 3------ 1------ 0------|
http://classicalguitartablature.blogspot.com/
E|--------------------------------| 8------------------------------|
B| 6------------------ 6-- 8--10--| 8-------------- 8------ 6-- 3--|
G| 5---------- 3------ 7-- 7------|---- 6-- 9------10------ 7-- 3--|
D|---- 3------ 5------ 7-- 7------|------------ 8------ 9-- 6------|
A| 5------ 4----------------------|------------------------ 7---- 6|
E|---------------- 8------ 7------| 6------ 8------10--------------|
http://classicalguitartablature.blogspot.com/
E|--------------------1010---- 810|-------- 5------ 8------ 7------|
B|-------------------- 8 8------ 8|-------- 5------ 6------10--11--|
G|-------------------- 8 7--------| 9------ 5------ 5------ 7-- 8--|
D|---- 5------ 3------------------|---- 7------ 5------ 4------10--|
A|------ 5------------------------| 0---------------------- 9------|
E|-------------- 8------ 6--------|-------- 3------ 4--------------|
http://classicalguitartablature.blogspot.com/
E|--------------------------------|--------------------------------|
B|-------------------- 6 5------ 4|---------------- 6------ 5-- 4--|
G|-------------------- 4------ 7 5|-------- 5------ 8------ 5-- 5--|
D|----10------ 8------ 6-- 6------|---- 5------ 5------ 7-- 4-- 3--|
A| 8------10----------------------|------------------------ 5------|
E|-------------- 4------ 6------ 5|-------- 6------ 8--------------|
http://classicalguitartablature.blogspot.com/
E|--------------------------------|------------------------ 6------|
B|--------------------------------|------------------------ 4------|
G|-------------------- 6------ 6--|---- 3------ 3------ 1-- 4------|
D|---- 3------ 3------ 6------ 4--|---- 3------ 3------ 1----------|
A| 4---- 3------------------------|------------------------ 6-- 4--|
E|---------------- 6------ 5------| 4------ 3------ 1--------------|
http://classicalguitartablature.blogspot.com/
E| 5------------------ 3-- 5-- 6--| 8------10------ 8---------- 8--|
B| 3------------------ 6-- 3-- 3--| 5------13------10------11--11--|
G|-------------------- 5-- 3-- 3--| 5------10---------- 9-- 8----10|
D|---- 3------ 3------------------|---- 5------12----------10------|
A| 3------------------------------| 0------11------10------ 9------|
E|-------- 6------ 5------ 3------|--------------------------------|
http://classicalguitartablature.blogspot.com/
E|------------------------ 5-- 6 8|------13------10------------ 5--|
B|-------------------- 8-- 3---- 5|------13------12--------11-- 8--|
G|-------------------- 5-- 3------| 5----12------11-------- 8-- 7--|
D|---- 8------ 8------ 5----------|---- 5------11------10--10------|
A|10------ 8------ 7------ 5------| 7------------------------------|
E|--------------------------------|--------11------10------ 8------|
http://classicalguitartablature.blogspot.com/
E|--------------------------------|---------------- 4------ 3-- 2--|
B|--------------------------------|---------------- 3------ 1-- 1--|
G|-------------------- 2------ 2--|---- 7---------- 4------ 2-- 2--|
D|------ 8---- 8------ 2------ 0--|---- 8------ 8------ 3----------|
A|-------- 0----------------------|-------- 5------ 4------ 2------|
E| 6-------------- 3------ 1------| 0------------------------------|
http://classicalguitartablature.blogspot.com/
E|--------------------------------|--------------------------------|
B|--------------------------------|--------------------------------|
G| 3------------------------------| 4---------- 2------ 2------ 1--|
D|---- 2------ 2------ 2------ 2--|---- 3------ 2------ 0------ 0--|
A| 3------ 1------ 0--------------|--------------------------------|
E|------------------------ 3------| 4------ 2------ 1------ 0------|
http://classicalguitartablature.blogspot.com/
E|--------------------1010---- 810|-------- 5------ 8------ 7------|
B|-------------------- 8 8------ 8|-------- 5------ 6------10--11--|
G|---- 3-------------- 8 7--------| 9------ 5------ 5------ 7-- 8--|
D|---- 5------ 3------------------|---- 7------ 5------ 4------10--|
A| 6------ 5----------------------| 0---------------------- 9------|
E|-------------- 8------ 6--------|-------- 3------ 4--------------|
http://classicalguitartablature.blogspot.com/
E|--------------------------------|--------------------------------|
B|-------------------- 6 5------ 4|---------------- 6------ 5-- 4--|
G|-------------------- 4------ 7 5|-------- 5------ 8------ 5-- 5--|
D|----10------ 8------ 6-- 6------|---- 5------ 5------ 7-- 4-- 3--|
A| 8------10----------------------|------------------------ 5------|
E|-------------- 4------ 6------ 5|-------- 6------ 8--------------|
http://classicalguitartablature.blogspot.com/
E|--------------------------------|--------------------------------|
B|--------------------------------|--------------------------------|
G|-------------------- 6------ 6--|---- 3------ 3------ 1------ 0--|
D|---- 3------ 3------ 6------ 4--|---- 3------ 3------ 1------ 2--|
A| 4---- 3------------------------|--------------------------------|
E|---------------- 6------ 5------| 4------ 3------ 1------ 0------|
http://classicalguitartablature.blogspot.com/
E|-------------------- 5----------| 8--------------------------10--|
B| 6------------------ 6-- 8-- 6--| 8-------------- 8------ 6--11--|
G| 5---------- 3------ 7-- 7-- 7--|---- 6-- 9------10------ 7--12--|
D|---- 3------ 5---------- 7-- 7--|------------ 8------ 9-- 6------|
A| 5------ 4----------------------|------------------------ 7------|
E|---------------- 8------ 7------| 6------ 8------10--------------|
http://classicalguitartablature.blogspot.com/
E|--------------------1010---- 810|-------- 5------ 8------ 7------|
B|-------------------- 8 8------ 8|-------- 5------ 6------10--11--|
G|-------------------- 8 7--------| 9------ 5------ 5------ 7-- 8--|
D|----12------12------------------|---- 7------ 5------ 4------10--|
A|--------------------------------| 0---------------------- 9------|
E|11------10---- 8------ 6--------|-------- 3------ 4--------------|
http://classicalguitartablature.blogspot.com/
E|--------------------------------|--------------------------------|
B|-------------------- 6 5------ 4|---------------- 6------ 5-- 4--|
G|-------------------- 4------ 7 5|-------- 5------ 8------ 5-- 5--|
D|----10------ 8------ 6-- 6------|---- 5------ 5------ 7-- 4-- 3--|
A| 8------10----------------------|------------------------ 5------|
E|-------------- 4------ 6------ 5|-------- 6------ 8--------------|
http://classicalguitartablature.blogspot.com/
E|--------------------------------|------------------------ 6------|
B|--------------------------------|------------------------ 4------|
G|-------------------- 6------ 6--|---- 3------ 3------ 1-- 4------|
D|---- 3------ 3------ 6------ 4--|---- 3------ 3------ 1----------|
A| 4---- 3------------------------|------------------------ 6-- 4--|
E|---------------- 6------ 5------| 4------ 3------ 1--------------|
http://classicalguitartablature.blogspot.com/
E| 5------------------------------|--------------------------------|
B| 3------------------------------|--------------------------------|
G| 3------------------------------|--------------------------------|
D|--------------------------------|--------------------------------|
A| 3------------------------------|--------------------------------|
E|--------------------------------|--------------------------------|
http://classicalguitartablature.blogspot.com/

0 ความคิดเห็น:

แสดงความคิดเห็น