To celebrate the anniversary, I am giving you (finally...) : iPhone LickByNeck !!!!!!

Dexterity (BASIC)

Charlie Parker's tune fingerstyle chord melody guitar BASIC arrangement played in the key of Bb.
Dexterity - CharlieParker - BASIC Arrangement played in the key of Bb.
http://classicalguitartablature.blogspot.com/
E|-------------------- 6----------|---- 6-- 8--10--1113-------- 5--|
B|------------ 6-------------- 7--| 8--------------11------15-- 6--|
G| 8------ 8-- 7-------------- 7--| 7--------------11---------- 5--|
D|---- 6-- 7-- 6-------------- 6--|--------------------------------|
A| 8---------------------- 7------| 6--------------11--------------|
E|-------- 7------ 6--------------|--------------------------------|
http://classicalguitartablature.blogspot.com/
E|-- 6 8-- 5-- 8-- 4--------------|---- 8----------10-- 8----------|
B|---------------- 6---------- 7--| 8------11-- 8-- 8-- 8----------|
G|---------------- 4------ 4------| 8-------------- 8---------- 8--|
D|-------------------- 6----------| 8-------------------------- 7--|
A| 5-------------- 4--------------|---------------- 8--------------|
E|--------------------------------| 8---------------------- 7---- 6|
http://classicalguitartablature.blogspot.com/
http://classicalguitartablature.blogspot.com/
E|------ 6----10------------------| 8----10-------------------- 8--|
B|---- 6--------13----1110----11 8|----11------ 7------10---- 7----|
G|---- 7--------10------10----10--| 8---------- 8------------------|
D|--------------12------12----12--|------------ 7---------- 7------|
A|----------------10--------------|---------------- 8--------------|
E|------------------------------ 8|--------------------------------|
http://classicalguitartablature.blogspot.com/
E| 6----------1011----10--------10|------------10 8------10---- 8--|
B| 6-- 6--------12------12------ 8|------------10 8----12----------|
G| 7---- 7------12------------12 8|------------ 9-- 8--------------|
D|------ 7------------------------|---- 8--------------------------|
A|--------------10----------------|-------- 9------ 8--------------|
E| 6---------------------------- 8|--------------------------------|
http://classicalguitartablature.blogspot.com/
E|-------------------- 6----------|---- 6-- 8--10--1113-------- 5--|
B|------------ 6-------------- 7--| 8--------------11------15-- 6--|
G| 8------ 8-- 7-------------- 7--| 7--------------11---------- 5--|
D|---- 6-- 7-- 6-------------- 6--|--------------------------------|
A| 8---------------------- 7------| 6--------------11--------------|
E|-------- 7------ 6--------------|--------------------------------|
http://classicalguitartablature.blogspot.com/
E|-- 6 8-- 5-- 8-- 4--------------|---- 8----------10-- 8----------|
B|---------------- 6---------- 7--| 8------11-- 8-- 8-- 8----------|
G|---------------- 4------ 4------| 8-------------- 8---------- 8--|
D|-------------------- 6----------| 8-------------------------- 7--|
A| 5-------------- 4--------------|---------------- 8--------------|
E|--------------------------------| 8---------------------- 7---- 6|
http://classicalguitartablature.blogspot.com/
E|------ 6----10------------------| 8----10-------------------- 8--|
B|---- 6--------13----1110----11 8|----11------ 7------10---- 7----|
G|---- 7--------10------10----10--| 8---------- 8------------------|
D|--------------12------12----12--|------------ 7---------- 7------|
A|----------------10--------------|---------------- 8--------------|
E|------------------------------ 8|--------------------------------|
http://classicalguitartablature.blogspot.com/
E| 6----------1011----10--------10|------------10 8------10---- 8--|
B| 6-- 6--------12------12------ 8|------------10 8----12----------|
G| 7---- 7------12------------12 8|------------ 9-- 8--------------|
D|------ 7------------------------|---- 8--------------------------|
A|--------------10----------------|-------- 9------ 8--------------|
E| 6---------------------------- 8|--------------------------------|
http://classicalguitartablature.blogspot.com/
E|-------------------- 6----------|---- 6-- 8--10--1113------------|
B|------------ 6-------------- 7--| 8--------------11------15--10--|
G| 8------ 8-- 7-------------- 7--| 7--------------11---------- 8--|
D|---- 6-- 7-- 6-------------- 6--|---------------------------- 8--|
A| 8---------------------- 7------| 6--------------11--------------|
E|-------- 7------ 6--------------|------------------------------ 8|
http://classicalguitartablature.blogspot.com/
E|---- 8---- 8--------------------| 6-- 8-- 6-- 6------------------|
B|--11--1011---- 9------------ 8--| 6-- 6-- 6-- 6------------------|
G|-------------- 8------------ 8--| 7-- 7-- 7-- 7---------- 7------|
D|-------------------- 7------ 7--|-------------------- 7------ 7--|
A|-------------- 8----------------|--------------------------------|
E|---------------------- 7--------| 6-------------- 6--------------|
http://classicalguitartablature.blogspot.com/
E|---------------- 7-- 5----------|---------- 7--------------------|
B| 8---------- 5-- 7------ 7------|---- 5-- 8-- 7---------- 7------|
G| 5---------- 6-- 5---------- 7--| 8---------- 5-------------- 7--|
D|---- 5------ 5------------------|------------ 7------ 7----------|
A|-------- 6------ 5--------------|---------------- 5--------------|
E| 5------------------------------| 5------------------------------|
http://classicalguitartablature.blogspot.com/
E|-------------- 8---- 7----------|--------------------------------|
B|----131213---- 6------ 8---- 6--|-------------------- 8------ 6--|
G|12----------12 5------------ 4--|------ 4------------ 5------ 5--|
D|10-------------------------- 3--|---- 3------ 3------ 7------ 4--|
A|--------------------------------|-------------- 5----------------|
E|10------------ 5----------------| 3---------------------- 4------|
http://classicalguitartablature.blogspot.com/
E| 5---------- 3------------------|------------ 5---------------- 3|
B| 3--------------13--11-------- 6|---- 4-- 5-- 3---------------- 4|
G| 3---- 3----------------12------| 3-- 3-- 3-- 3-------- 3---- 5--|
D|---- 3----------12----------12--| 5-- 5-- 5---------- 3----------|
A|----------------10--------------| 3---------------------------- 3|
E| 3------------------------------|---------------- 3--------------|
http://classicalguitartablature.blogspot.com/
E|---------------- 8--------------|-------- 8--10----13------------|
B|------------ 6-- 8--11-- 8------| 7--10----------16--15----------|
G|-------- 3------ 8---------- 8--| 8---- 8--------14----14--------|
D|---- 5--------------------------| 7-------- 7----13----------13--|
A|----------------10--------------| 8------------------------------|
E|--------------------------------|----------------13------------ 6|
http://classicalguitartablature.blogspot.com/
E|------ 6----10------------------| 8----10-------------------- 8--|
B|---- 6--------13----1110----11 8|----11------ 7------10---- 7----|
G|---- 7--------10------10----10--| 8---------- 8------------------|
D|--------------12------12----12--|------------ 7---------- 7------|
A|----------------10--------------|---------------- 8--------------|
E|------------------------------ 8|--------------------------------|
http://classicalguitartablature.blogspot.com/
E| 6----------1011----10--------10|------------10 8------10---- 8--|
B| 6-- 6--------12------12------ 8|------------10 8----12----------|
G| 7---- 7------12------------12 8|------------ 9-- 8--------------|
D|------ 7------------------------|---- 8--------------------------|
A|--------------10----------------|-------- 9------ 8--------------|
E| 6---------------------------- 8|--------------------------------|
http://classicalguitartablature.blogspot.com/
E|-------------------- 6----------|---- 6-- 8--10--1113------------|
B|------------ 6-------------- 7--| 8--------------11------15--10--|
G| 8------ 8-- 7-------------- 7--| 7--------------11---------- 8--|
D|---- 6-- 7-- 6-------------- 6--|---------------------------- 8--|
A| 8---------------------- 7------| 6--------------11--------------|
E|-------- 7------ 6--------------|------------------------------ 8|
http://classicalguitartablature.blogspot.com/
E|---- 8---- 8--------------------| 6-- 8-- 6-- 6------------------|
B|--11--1011---- 9------------ 8--| 6-- 6-- 6-- 6------------------|
G|-------------- 8------------ 8--| 7-- 7-- 7-- 7---------- 7------|
D|-------------------- 7------ 7--|-------------------- 7------ 7--|
A|-------------- 8----------------|--------------------------------|
E|---------------------- 7--------| 6-------------- 6--------------|
http://classicalguitartablature.blogspot.com/
E|-------------------- 6----------|---- 6-- 8--10--1113------------|
B|------------ 6-------------- 7--| 8--------------11------15--10--|
G| 8------ 8-- 7-------------- 7--| 7--------------11---------- 8--|
D|---- 6-- 7-- 6-------------- 6--|---------------------------- 8--|
A| 8---------------------- 7------| 6--------------11--------------|
E|-------- 7------ 6--------------|------------------------------ 8|
http://classicalguitartablature.blogspot.com/
E|---- 8---- 8--------------------| 6-- 8-- 6-- 6------------------|
B|--11--1011---- 9------------ 8--| 6-- 6-- 6-- 6------------------|
G|-------------- 8------------ 8--| 7-- 7-- 7-- 7---------- 7------|
D|-------------------- 7------ 7--|-------------------- 7------ 7--|
A|-------------- 8----------------|--------------------------------|
E|---------------------- 7--------| 6-------------- 6--------------|
http://classicalguitartablature.blogspot.com/
E|-------------------- 6----------|---- 6-- 8--10--1113------------|
B|------------ 6-------------- 7--| 8--------------11------15--10--|
G| 8------ 8-- 7-------------- 7--| 7--------------11---------- 8--|
D|---- 6-- 7-- 6-------------- 6--|---------------------------- 8--|
A| 8---------------------- 7------| 6--------------11--------------|
E|-------- 7------ 6--------------|------------------------------ 8|
http://classicalguitartablature.blogspot.com/
E|---- 8---- 8--------------------| 6-- 8-- 6-- 6-------- 6--------|
B|--11--1011---- 9------------ 8--| 6------ 6-- 6-------- 6--------|
G|-------------- 8------------ 8--| 5---------- 5---------- 5------|
D|-------------------- 7------ 7--|--------------------------------|
A|-------------- 8----------------|--------------------------------|
E|---------------------- 7--------| 6---------------------- 6------|
http://classicalguitartablature.blogspot.com/
E|--------------------------------|--------------------------------|
B|--------------------------------|--------------------------------|
G|--------------------------------|--------------------------------|
D|--------------------------------|--------------------------------|
A|--------------------------------|--------------------------------|
E|--------------------------------|--------------------------------|
http://classicalguitartablature.blogspot.com/

0 ความคิดเห็น:

แสดงความคิดเห็น