To celebrate the anniversary, I am giving you (finally...) : iPhone LickByNeck !!!!!!

Dexterity (Intermediate)

Charlie Parker's tune fingerstyle chord melody guitar intermediate arrangement played in the key of Bb.
Dexterity - CharlieParker - Intermediate Arrangement played in the key of Bb.
http://classicalguitartablature.blogspot.com/
E|------------ 1------------------|------------10--111311------ 5--|
B|------------ 2------11----------|----11--13------10----15---- 5--|
G| 3---------- 3------ 8------11--|12------10------ 8------11-- 5--|
D|---- 6------ 3------10------10--|12------12--------------12------|
A|------------------------ 8------|------------------------13------|
E| 6------ 4------ 3--------------|11------10------ 8--------------|
http://classicalguitartablature.blogspot.com/
E|-- 6 8---- 8------------------ 6|---- 8--------------------------|
B|------1011---- 9------------ 8 6|--------11--11------------------|
G|------ 8------ 8------------ 5 5|-------- 8---------- 8------ 5--|
D|------ 8------------ 7------ 7--|--------10---------- 7------ 4--|
A|------10------ 8------ 6--------| 5------------------------------|
E| 5------------------------------|-------- 8------ 7------ 5------|
http://classicalguitartablature.blogspot.com/
http://classicalguitartablature.blogspot.com/
E|------------10---------- 5-- 6--|--------10------------------ 8 6|
B|---- 6--11------13--11-- 8-- 8--|1311----12-- 7------10-------- 6|
G|---- 5--11------10--10-- 7-- 7--|12--12--10-- 8------ 8-------- 5|
D|---- 5----------12--12----------|13---------- 7------ 7----------|
A|--------11------10------ 8------|--------------------------------|
E| 6------------------------------|11------10------ 8------ 7------|
http://classicalguitartablature.blogspot.com/
E|------------1011----10----------|10----------10--------10--------|
B|------------1012----12--12------| 8---------- 813----1210----13--|
G|----10------1010----10--12--12--| 8---------- 8--10--1010----10 3|
D|----10------------------11--11--|---- 8----------12--12------10--|
A|--------------------------------| 8------10------11------12------|
E| 6------ 8------10------12------|--------------------------------|
http://classicalguitartablature.blogspot.com/
E|------------ 1------------------|------------10--111311------ 5--|
B|------------ 2------11----------|----11--13------10----15---- 6--|
G|------------ 3------ 8------11--|12------10------ 8------11-- 5--|
D|---- 6------ 3------10------10--|12------12--------------12------|
A|------------------------ 8------|------------------------13---- 0|
E| 6------ 4------ 3--------------|11------10------ 8--------------|
http://classicalguitartablature.blogspot.com/
E|-- 6 8------ 8------------------|---- 8-- 6------10--------------|
B|------10--11-- 9------------ 7--| 8------ 8-- 8--10--13----------|
G|--------------10------------ 9--| 8------ 8-- 8--10---------- 8--|
D|-------------------- 9------ 8--| 7---------- 7-------------- 7--|
A|--------11------10------ 9------| 8------ 6----------------------|
E|--------------------------------|----------------10------ 8------|
http://classicalguitartablature.blogspot.com/
E|------------10---------- 5-- 6--|--------10------------------ 8 6|
B|---- 6--11------13--11-- 8-- 8--|1311----12-- 7------10-------- 6|
G|---- 5--11------10--10-- 7-- 7--|12--12--10-- 8------ 8-------- 5|
D|---- 5----------12--12----------|13---------- 7------ 7----------|
A|--------11------10------ 8------|--------------------------------|
E| 6------------------------------|11------10------ 8------ 7------|
http://classicalguitartablature.blogspot.com/
E|------------1011----10----------|10----------10--------10--------|
B|------------1012----12--12------| 8---------- 813----1210----13--|
G|----10------1010----10--12--12--| 8---------- 8--10--1010----10 3|
D|----10------------------11--11--|---- 8----------12--12------10--|
A|--------------------------------| 8------10------11------12------|
E| 6------ 8------10------12------|--------------------------------|
http://classicalguitartablature.blogspot.com/
E|------------ 1------------------|------------10--111311------ 5--|
B|------------ 2------11----------|----11--13------10----15---- 5--|
G|------------ 3------ 8------11--|12------10------ 8------11-- 5--|
D|---- 6------ 3------10------10--|12------12--------------12------|
A|------------------------ 8------|------------------------13------|
E| 6------ 4------ 3--------------|11------10------ 8--------------|
http://classicalguitartablature.blogspot.com/
E|-- 6 8---- 8------------------ 6|---- 8--------------------------|
B|------1011---- 9------------ 8 6|--------11--11-- 6---------- 5--|
G|------ 8------ 8------------ 5 5|-------- 8------ 7---------- 7--|
D|------ 8------------ 7------ 7--|--------10---------- 7------ 6--|
A|------10------ 8------ 6--------| 5------------------------------|
E| 5------------------------------|-------- 8------ 7------ 6------|
http://classicalguitartablature.blogspot.com/
E|---------------- 7--------------|---------- 7--------------------|
B| 8---------- 5--10--10-- 7------|-------- 8-- 7-------------- 3--|
G| 5---------- 4-- 9------ 7-- 7--| 8-- 9-- 7-- 5-------------- 3--|
D|------ 5---- 3---------- 7-- 7--|10------ 7-- 5------ 5------ 5--|
A|----------------10------ 9------|10------ 9------ 7------ 6------|
E| 5------ 4----------------------|--------------------------------|
http://classicalguitartablature.blogspot.com/
E|---- 8---------- 8-- 7----------|------------------------------ 5|
B| 8------1213---- 6---- 8---- 6--|-------------------- 8------ 6 3|
G| 5------ 9--12-- 7---- 5---- 7--|-------------------- 5------ 5 3|
D| 7------11-------------- 7-- 5--|---- 5------ 5------ 5------ 4--|
A| 5------------------------------|--------------------------------|
E|-------- 9------ 8------ 5------| 7------ 6------ 5------ 4------|
http://classicalguitartablature.blogspot.com/
E|---------------- 8 6------------|------------ 5------------------|
B|------------ 8-- 6-- 6-- 8------| 6-- 4-- 5-- 3------------------|
G|------------ 5-- 7-- 7-- 7-- 7--| 3------ 3-- 3-------------- 5--|
D|---- 3------ 5---------- 7-- 7--| 5------ 5---------- 3------ 8--|
A|--------------------------------| 3------ 4------ 5------ 7------|
E| 3------ 5------ 6------ 7------|--------------------------------|
http://classicalguitartablature.blogspot.com/
E|---------------- 8--------------|---- 5-- 8--10--111210----------|
B| 8---------- 6-- 8--11-- 8------| 7------ 8------10--------------|
G| 5---------- 4-- 8------ 8-- 8--| 5------ 8------10---------- 8--|
D|---- 5------ 6---------- 8-- 8--| 7-------------------------- 7--|
A| 6------ 5----------------------|--------10------12--------------|
E|---------------- 8------ 6------| 5---------------------- 7------|
http://classicalguitartablature.blogspot.com/
E|------------10---------- 5-- 6--|--------10------------------ 8 6|
B|---- 6--11------13--11-- 8-- 8--|1311----12-- 7------10-------- 6|
G|---- 5--11------10--10-- 7-- 7--|12--12--10-- 8------ 8-------- 5|
D|---- 5----------12--12----------|13---------- 7------ 7----------|
A|--------11------10------ 8------|--------------------------------|
E| 6------------------------------|11------10------ 8------ 7------|
http://classicalguitartablature.blogspot.com/
E|------------1011----10----------|10----------10--------10--------|
B|------------1012----12--12------| 8---------- 813----1210----13--|
G|----10------1010----10--12--12--| 8---------- 8--10--1010----10 3|
D|----10------------------11--11--|---- 8----------12--12------10--|
A|--------------------------------| 8------10------11------12------|
E| 6------ 8------10------12------|--------------------------------|
http://classicalguitartablature.blogspot.com/
E|------------ 1------------------|------------10--111311------ 5--|
B|------------ 2------11----------|----11--13------10----15---- 5--|
G|------------ 3------ 8------11--|12------10------ 8------11-- 5--|
D|---- 6------ 3------10------10--|12------12--------------12------|
A|------------------------ 8------|------------------------13------|
E| 6------ 4------ 3--------------|11------10------ 8--------------|
http://classicalguitartablature.blogspot.com/
E|-- 6 8---- 8------------------ 6|---- 8--------------------------|
B|------1011---- 9------------ 8 6|--------11--11------------------|
G|------ 8------ 8------------ 5 5|-------- 8---------- 8------ 5 3|
D|------ 8------------ 7------ 7--|--------10---------- 7------ 4--|
A|------10------ 8------ 6--------| 5------------------------------|
E| 5------------------------------|-------- 8------ 7------ 5------|
http://classicalguitartablature.blogspot.com/
E|------------ 1------------------|------------10--111311------ 5--|
B|------------ 2------11----------|----11--13------10----15---- 5--|
G|------------ 3------ 8------11--|12------10------ 8------11-- 5--|
D|---- 6------ 3------10------10--|12------12--------------12------|
A|------------------------ 8------|------------------------13------|
E| 6------ 4------ 3--------------|11------10------ 8--------------|
http://classicalguitartablature.blogspot.com/
E|-- 6 8---- 8------------------ 6|---- 8--------------------------|
B|------1011---- 9------------ 8 6|--------11--11------------------|
G|------ 8------ 8------------ 5 5|-------- 8---------- 8------ 5 3|
D|------ 8------------ 7------ 7--|--------10---------- 7------ 4--|
A|------10------ 8------ 6--------| 5------------------------------|
E| 5------------------------------|-------- 8------ 7------ 5------|
http://classicalguitartablature.blogspot.com/
E|------------ 1------------------|------------10--111311------ 5--|
B|------------ 2------11----------|----11--13------10----15---- 5--|
G|------------ 3------ 8------11--|12------10------ 8------11-- 5--|
D|---- 6------ 3------10------10--|12------12--------------12------|
A|------------------------ 8------|------------------------13------|
E| 6------ 4------ 3--------------|11------10------ 8--------------|
http://classicalguitartablature.blogspot.com/
E|-- 6 8---- 8------------------ 6|---- 8--------------------------|
B|------1011---- 9------------ 8 6|--------11--11------------------|
G|------ 8------ 8------------ 5 5|-------- 8---------- 8------ 5--|
D|------ 8------------ 7------ 7--|--------10---------- 7------ 4--|
A|------10------ 8------ 6--------| 5------------------------------|
E| 5------------------------------|-------- 8------ 7------ 5------|
http://classicalguitartablature.blogspot.com/
E|--------------------------------|--------------------------------|
B|--------------------------------|--------------------------------|
G| 7------------------------------|--------------------------------|
D| 5------------------------------|--------------------------------|
A|--------------------------------|--------------------------------|
E| 6------------------------------|--------------------------------|
http://classicalguitartablature.blogspot.com/

0 ความคิดเห็น:

แสดงความคิดเห็น